Song name
# A B C D E F G H I J K L M N O P Q R S T U V W X Y Z

The Distors - Cristal tab

THE DISTORS - Cristal GUITAR*
Álbum: Noción Modulada
Autor: Pablo Castillo

Intro
(Clean+Delay+Chorus)
e|-------------0-----0-----0----0-----0---------------|
B|---------------1-----1------1-----1-----------------|
G|-----------------0------0------0--------------------|
D|----2----2------------------------------------------|
A|--3----3--------------------------------------------|
E|----------------------------------------------------|

e|-------------0-----0-----0----0-----0---------------|
B|---------------1-----1------1-----1-----------------|
G|-----------------2------2------2--------------------|
D|----2----2------------------------------------------|
A|--0----0--------------------------------------------|
E|----------------------------------------------------|

e|-------------0-----0-----0----0-----0---------------|
B|---------------1-----1------1-----1-----------------|
G|-----2-----2-------2------2------2------------------|
D|--3-----3-------------------------------------------|
A|----------------------------------------------------|
E|----------------------------------------------------|

e|-------------3-----3-----3----3-----3---------------|
B|---------------0-----0------0-----0-----------------|
G|-----------------0------0------0--------------------|
D|----------------------------------------------------|

A|-----2-----2----------------------------------------|
E|--3-----3-------------------------------------------|

Intro acorde

e|---0-0-0-0--0-0-0-0-----        --2-2-2-2-2-2-2-2--|
B|---1-1-1-1--1-1-1-1-----        --3-3-3-3-3-3-3-3--|
G|---0-0-0-0--2-2-2-2----- (X 3)  --2-2-2-2-2-2-2-2--|  TODO (X 2)
D|---2-2-2-2--2-2-2-2-----        --0-0-0-0-0-0-0-0--|
A|---3-3-3-3--0-0-0-0-----        -------------------|
E|------------------------        -------------------|


Verso
(Clean+Chorus)
e|--0------0-----0-----2----|
B|--1------1-----1-----3----|
G|--0------2-----2-----2----|  (X 4)
D|--2------2-----3-----0----|
A|--3------0-----0-----0----|
E|--------------------------|

Coro
(Clean+Chorus)
e|--0-----------0---------|
B|--3-----------1---------|
G|--3-----------2---------|  (X 4)
D|--3-----------3---------|
A|--0-----------0---------|
E|------------------------|

Intro acorde (X 1)
Verso
Coro
Puente
(Clean)
e|--0----------------2---3-----|
B|--0----------------3---------|
G|--1----------------2---------|  (X 2)
D|--2----------------0---------|
A|--2----------------0---------|
E|-----------------------------|


Solo
(Distor+Delay+Chorus+Octaver)
e|------------------------------|
B|-----3/5--3--0--1--1/3---(3)--|
G|--2---------------------------|  (X 4)
D|------------------------------|
A|------------------------------|
E|------------------------------|

Salida
(Distor+Delay+Chorus)
e|-----------------------------------------------|
B|----3-----3-----3---------1-------1------1-----|
G|------3-----3-----3----------2------2-------2--|    (X 4)
D|--3------3-----3--------3-------3------3-------|
A|-----------------------------------------------|
E|-----------------------------------------------|

(Clean+Delay+Chorus+Octaver)

e|----------------------------------------0------|
B|-----3/5--3--0--1--1/3---3-3-3-3-3-3-----3-----|
G|--2---------------------------------------3----|
D|-------------------------------------------3---|
A|--------------------------------------------0--|
E|-----------------------------------------------|
Tap to rate this tab
# A B C D E F G H I J K L M N O P Q R S T U V W X Y Z