Song name
# A B C D E F G H I J K L M N O P Q R S T U V W X Y Z

The District - Snow Song tab

Verses:

e|----------------------------------|
B|-----3-----3-----------3-----3----|
G|---0-----0-----------0-----0------|
D|-2-----4-----------2-----4--------|
A|-------------2-----------------3--|
E|----------------------------------|

x2

then
e|----------------------------------|
B|-----3-----3-----------------3----|
G|---0-----0-------0-----0---0------|
D|-2-----4-------2-----2---0--------|
A|-------------2-----3--------------|
E|-------------------------------3--|
(fiddle around until you get it sounding right, but thats it basically)


Chorus is something like:
           Em
So come outside
    G
And we can watch the sky
         C
Turn up your palms
     D                         C
And open your hands up wide
         Em     G
Come outside
     C            D
And open up your eyes


Bridge:
Em                    G
       Just walk with me
Em
Ohh
G                                      Em
Take my hand I'll lead you down these city streets
             G
No won't you walk with me
             Em
No won't you walk with me
G
No
Tap to rate this tab
# A B C D E F G H I J K L M N O P Q R S T U V W X Y Z