The Divine Comedy - Songs Of Love tab

Just worked out the solo melody, best known for its use in Father Ted. Listen to
the song for the rhythms.


E|-------------------------------------------------------------------------|
B|-13-------------------------------------------------13-15---13------13---|
G|------14--12-14----12--------12------------------14------------12-14-----|
D|------------------------12-14------14--12--14--14------------------------|
A|-------------------------------------------------------------------------|
E|-------------------------------------------------------------------------|

E|-------------------------------------------------------------------------|
B|----------------------------------12-------------------------------------|
G|-14--12-14---12-----12----10--13-----------------------------------------|
D|-----------------13------------------------------------------------------|
A|-------------------------------------------------------------------------|
E|-------------------------------------------------------------------------|

E|-------------------------------------------------------------------------|
B|-13-------------------------------------------------13-15---13------13---|
G|------14--12-14----12--------12------------------14------------12-14-----|
D|------------------------12-14------14--12--14--14------------------------|
A|-------------------------------------------------------------------------|
E|-------------------------------------------------------------------------|

E|-------------------------------------------------------------------------|
B|-------------13~---------------------------------------------------------|
G|-12h14-12h14-------------------------------------------------------------|
D|-------------------------------------------------------------------------|
A|-------------------------------------------------------------------------|
E|-------------------------------------------------------------------------|


************************************

| /   slide up
| \   slide down
| h   hammer-on
| p   pull-off
| ~   vibrato
| +   harmonic
| x   Mute note
| b   Bend
| pb  Pre-bend
| br  Bend release
| pbr Pre-bend release
| brb Bend release bend

************************************
Tap to rate this tab
 
# A B C D E F G H I J K L M N O P Q R S T U V W X Y Z