Song name
# A B C D E F G H I J K L M N O P Q R S T U V W X Y Z

The Divine Comedy - Perfect Lovesong tab

Highlighted       Show chord diagrams
-------------------------------------------------------------------------------
	Perfect Lovesong - The Divine Comedy
-------------------------------------------------------------------------------
Tabbed by: Klaus Gleissenthall

Tuning: Standard
Capo: 3rd fret for the last verse  move it to the 4th fret


This is just a brief sketch of how it actually works. Hope you get the idea.
Hope the idea is right in the first place. Anyways enjoy.
Btw the chord names are almost entirely made up,
so no guarrantee for that.

Verse:

Chords:
e|--0-----0--------------0--------------0---------1----------3-----------2----------0------|
B|--1-----3--------------3--------------2---------1----------0-----------1----------1------|
G|--0-----0--------------0--------------0---------2----------0-----------2----------0------|
D|--2-----2--------------2--------------2---------3----------0-----------0----------3------|
A|--3-----1--------------0--------------0---------3----------2----------------------3------|
E|------------------------------------------------1----------3----------------------3------|
     C   A7sus4/A#    A7sus4         A7     
    F           G     D7 Csus4/G


C           A7sus4/A#    A7sus 4   A7       
   F       G

Give...     love...     give you...              perfect lovesong...


C           A7sus4/A#    A7sus 4   A7       
   F       G         C

With...     di-vine...  bass-line...      big old     Beach... sound

F           C           F                 C

match...    pound...    heavyweights...   final...

F                D7           G               C      
           Csus4/G

hold...     other...    don't...    down...


e|-------1-----0---------0------------2--------------0------1-----3-------1--|
B|---3---1-----1---------0------------3--------------1------1-----0-------0--|
G|---2---2-----2---------0------------4--------------2------2-----0-------0--|
D|---0---3-----2---------0------------4--------------2------3-----0-------0--|
A|-------------0---------2------------2--------------0------3-----2-------2--|
E|-----------------------0---------------------------0------1-----3-------3--|
     Dm   F      Am       Em7        Bm     
        Am     F      G      G7

Dm F                   Am            Em7             Bm

Maybe now   	you can     see...


    Am                    F     G      G7

Just what   you.. mean to     me...

For the last verse move your capo up to the 4th fret
===============================================================================
Tap to rate this tab
# A B C D E F G H I J K L M N O P Q R S T U V W X Y Z