Song name
# A B C D E F G H I J K L M N O P Q R S T U V W X Y Z

The Divine Threshold - Searching And Seeking tab




 http://www.facebook.com/thedivinethreshold


C#|--------------------------------------------------------------------------|
G#|---7---------7~------------7----------7~----------------------------------|
E |-----7----7------------------7----7------------------------xAlot----------|
B |-------5----5------------------5----5-------------------------------------|
F#|--------------------------------------------------------------------------|
B |--------------------------------------------------------------------------|



SOLO
C#|-------------------------------------------------------------------------|
G#|-------------------------------------------------------------------------|
E |--7-7-7-7-7-7-7-7-7-7-7-7/-9-9-9-9/-6-6-6-6-6-6-6-6-6-6-6-6--------------|
B |--x-x-x-x-x-x-x-x-x-x-x-x--x-x-x-x--x-x-x-x-x-x-x-x-x-x-x-x--------------|
F#|--5-5-5-5-5-5-5-5-5-5-5-5/-7-7-7-7/-4-4-4-4-4-4-4-4-4-4-4-4--------------|
B |-------------------------------------------------------------------------|



C#|-------------------------------------------------------------------------|
G#|-------------------------------------------------------------------------|
G |--12-12-10-10-9-9-9-9-9-9-9-9-9-9-9-9-9/-9-9-9-9/-6-6-6-6-6-6-6-6-6-6-6/-|
B |--x--x--x--x--x-x-x-x-x-x-x-x-x-x-x-x-x--x-x-x-x--x-x-x-x-x-x-x-x-x-x-x--|
F#|--10-10-9--9--7-5-5-5-5-5-5-5-5-5-5-5-5/-7-7-7-7/-4-4-4-4-4-4-4-4-4-4-4/-|
B |-------------------------------------------------------------------------|



C#|---------------------------------------------------------------------------|
G#|---------------------------------------------------------------------------|
E |--9~~~-/7~~~---------------------------------------------------------------|
B |--x-----x------------------------------------------------------------------|
F#|--7~~~-/5~~~---------------------------------------------------------------|
B |---------------------------------------------------------------------------|

WAIT WELL GABE DOES HIS THING
C#|-------------------------------------------------------------------------|
G#|-------------------------------------------------------------------------|
E |----7-7-7-7-7-7-7-7/-11-11-11-11-11-11-11-11-11------------xAlot---------|
B |----5-5-5-5-5-5-5-5/-9--9--9--9--9--9--9--9--9---------------------------|
F#|----5-5-5-5-5-5-5-5/-9--9--9--9--9--9--9--9--9---------------------------|
B |----5-5-5-5-5-5-5-5/-9--9--9--9--9--9--9--9--9---------------------------|
Tap to rate this tab
# A B C D E F G H I J K L M N O P Q R S T U V W X Y Z