Song name
# A B C D E F G H I J K L M N O P Q R S T U V W X Y Z

The Division Group - Right Now I tab

-------------------------------------------------------------------------------
			     RIGHT NOW I... - The Division Group
-------------------------------------------------------------------------------

Band: The Division Group
Band Site: http://www.thedivisiongroup.com/
Song: Right Now I...
Album: The Division Group EP
Tabbed by: Rick Gardiner
Email: rick_gardiner@hotmail.com

Tuning: Standard

Hey, I'd just like to say I love this band and this song, Ben Kenney is truly a genius. 
you haven't heard this song, you're missing out. Here's the tab, have fun!

Verse 1 / Intro - Light Distortion

This is the basic part of it, there might be a few variations, they're easy to figure out

e|---------------------------------------------------------------------------|
B|----------(0)--------------------0----------------------------0------------|
G|-----------8---------------------1--------------3-----------3-----3--------|
D|-----------9---------------------2--------------4-----------4--------------|X4
A|---------------------------------------------------------------------------|
E|-----7-7-------------------0-0-----------(0)-4-4----(4)-2-2----------(2)---|

             "Right now I__ miss you"
             "Right now I need to hear you say"
             "Say that you______ need me"
             "Say that it's gonna___ be okay"

e|---------------------------------------------------------------------------|
B|----------(0)-------------------0---------(0)----------------------(0)-----|
G|-----------4--------------------1----------4------------------------1------|
D|-----------5--------------------2----------5-----------------------(2)-----|
A|---------------------------------------------------------------------------|
E|-----3-3----------------(3)-0-0----(0)-3-3--------------------0-0----------|

      "Save your tears for a rainy day______ some things aren't meant to go away"

                                                           1st time only
                                                               |===========|
e|------------------------------------------------------(0)-0-------0--------|
B|----------(0)--------------------------------------(0)------0-------0------|
G|-----------4------------------3-----------------1-------------1-------1----|
D|-----------5------------------4--------------------------------------------|X2
A|---------------------------------------------------------------------------|
E|-----3-3----------------3-2-2------------2-0-0-----------------------------|

           "Fell apart when you went away"
           "Fell apart when you__ went away___"

Chorus - Mild Distortion

You might hear some ringing here, that's just the top 3 open strings, you can play those 
once in a while if you want.

e|---------------------------------------------------------------|
B|---------------------------------------------------------------|
G|---------------------------------------------------------------|
D|---------------------------------------------------------------|
A|----------------5h6-7-----5-7-5-----------5h6-7----5-7-5-------|
E|-------3-3-3-----------------------3-3-3-----------------------|

       "Ohh..."

e|---------------------------------------------------------------|
B|---------------------------------------------------------------|
G|---------------------------------------------------------------|
D|---------------------------------------------------------------|
A|----------------5h6-7-----5-7-5-----------5h6-7----7-5-7-5-----|
E|-------3-3-3-----------------------3-3-3-----------------------|

           "...Ohh Ahhahhh"

e|---------------------------------------------------------------|
B|---------------------------------------------------------------|
G|---------------------------------------------------------------|
D|---------------------------------------------------------------|
A|----------------5h6-7-----5-7-5-----------5h6-7----5-7-5-------|
E|-------3-3-3-----------------------3-3-3-----------------------|

       "Ohh..."

e|--------------------------------------------------(0)----------|
B|--------------------------------------------------(0)----------|
G|--------------------------------------------------(0)----------|
D|---------------------------------------------------------------|
A|----------------5h6-7-----5-7-5--------------------------------|
E|-------3-3-3-----------------------3-3-3--3h5-1----------------|

           "...Ohh Ahhahhh"

e|---------------------------------------------------------------|
B|---------------------------------------------------------------|
G|---------------------------------------------------------------|
D|-------------------------------------------------------5-------|
A|----------------5h6-7-----5-7-5-----------5h6-7----5-7---7-5---|
E|-------3-3-3-----------------------3-3-3-----------------------|

       "Ohh..."

e|---------------------------------------------------------------|
B|---------------------------------------------------------------|
G|---------------------------------------------------------------|
D|---------------------------------------------------------------|
A|----------------5h6-7-----5-7-5-----------5h6-7----7-5-7-5-----|
E|-------3-3-3-----------------------3-3-3-----------------------|

           "...Ohh Ahhahhh"

e|---------------------------------------------------------------|
B|---------------------------------------------------------------|
G|---------------------------------------------------------------|
D|---------------------------------------------------------------|
A|----------------5h6-7---7-5-7-5-----------5h6-7--7-5-7-5-------|
E|-------3-3-3-----------------------3-3-3-----------------------|

       "Ohh..."

e|--------------------------------------------------(0)----------|
B|--------------------------------------------------(0)----------|
G|--------------------------------------------------(0)----------|
D|---------------------------------------------------------------|
A|----------------5h6-7---7-5-7-5--------------------------------|
E|-------3-3-3-----------------------3-3-3--3h5-1----------------|

           "...Ohh Ahhahhh"

Verse 2 / Outro - Light Distortion
                                                          1st time only
                                                                  |=========|
e|---------------------------------------------------------------------------|
B|----------(0)-------------------(0)---------------------------0------------|
G|-----------8---------------------1--------------3-----------3-----3--------|
D|----------(9)-------------------(2)-------------4----------(4)-------------|X2
A|---------------------------------------------------------------------------|
E|-----7-7-------------------0-0-----------(0)-4-4----(4)-2-2----------2-----|

             "Right now I__ miss you"
             "Right now I__ miss you"

That's it, any problems e-mail me at rick_gardiner@hotmail.com.


| /  slide up
| \  slide down
| h  hammer-on
| p  pull-off
| ~  vibrato
| +  harmonic
| x  Mute note
===============================================================================
Tap to rate this tab
# A B C D E F G H I J K L M N O P Q R S T U V W X Y Z