Song name
# A B C D E F G H I J K L M N O P Q R S T U V W X Y Z

The Divorce - Birdsmagic tab

The Divorce
Birds=Magic
The gifted program


Standard tuning

Intro

|------------------------------------------------------|
|------13-13-12-12------------13-13-12-12--------------|
|-----------------12-12------------------12-12---------|
|-10-10------------------10-10-------------------------|
|------------------------------------------------------|
|------------------------------------------------------|

|-------------------------------------------------------|
|------13-13-12-12h13p12---------13-13-12h13p12---15----|
|-----------------------12---------------------12-------|
|-10-10---------------------10-10-----------------------|
|-------------------------------------------------------|
|-------------------------------------------------------|


this sound corrct for the first part.  they switch it up a little bit as they go( i think)


Any corrections please email me. thanks


Tabbed By: J.D. Morris

Jdonivan@gmail.com


___
Tap to rate this tab
# A B C D E F G H I J K L M N O P Q R S T U V W X Y Z