Song name
# A B C D E F G H I J K L M N O P Q R S T U V W X Y Z

The Dodos - Walking tab

Help us improve GuitareTab! Take a short survey!
The Dodos - Walking
Visiter

Tabbed by:kendomac89

Tuning:A A D G A e

Alrighty, thought it was about time someone put a tab down for this cracking song. 
Far too few dodos tabs out there for such a talented band.

I think i've more or less got the whole song now. The chorus is 
a bit dodgy because its mixed in with a baanjo of some sorts in the 
recorded version and i can't find a good live version online anywhere.
If anyone could help with this it would be much appreciated. Anyway, here goes...

Intro:

e|----------------------------------|----------------------------------|
A|--------------0h2-------------0---|-----------------0-------------0--|
G|-------2--------------------------|------------2------------2--------|
D|-4------------------4-------------|---2------------------------------|
A|----0---------0----------0--------|--------0--------0----------0-----|
A|----------------------------------|----------------------0 let ring--|


e|----------------------------------|-----------------------------------|
A|--------------0h2-------------0---|-----------------0-------------0---|
G|-------2--------------------------|------------2----------------------|
D|-4------------------4-------------|---2---------------------2---------|
A|----0---------0----------0--------|--------0--------0-----------0-----|
A|----------------------------------|----------------------0 let ring---|

Enter Banjo!!! - (N.B. Do not attempt to play this tab on the banjo)

e|----------------------------------|----------------------------------|
A|--------------0h2-------------0---|-----------------0-------------0--|
G|-------2--------------------------|------------2------------2--------|
D|-4------------------4-------------|---2------------------------------|
A|----0---------0----------0--------|--------0--------0----------0-----|
A|----------------------------------|----------------------0 let ring--|


e|----------------------------------|----------------------------------|
A|--------------2---------------0---|-----------------0-------------0--|
G|-------2--------------------------|------------2------------2--------|
D|-4------------------4-------------|---2------------------------------|
A|----0---------0----------0--------|--------0--------0----------0-----|
A|----------------------------------|----------------------0 let ring--|

Verse 1:

           0:13 "You can fight the fire that's in your head......"
e|----------------------------------|---------------------------------|
A|--------------0h2-------------0---|-----------------0-------------0-|
G|-------2--------------------------|------------2------------2-------|
D|-4------------------4-------------|---2-----------------------------|
A|----0---------0----------0--------|--------0--------0---------0-----|
A|----------------------------------|----------------------0 let ring-|


e|----------------------------------|---------------------------------|
A|--------------0h2-------------0---|-----------------0-------------0-|
G|-------2--------------------------|------------2------------2-------|
D|-4------------------4-------------|---2-----------------------------|
A|----0---------0----------0--------|--------0--------0---------0-----|
A|----------------------------------|----------------------0 let ring-|


e|----------------------------------|---------------------------------|
A|--------------0h2-------------0---|-----------------0-------------0-|
G|-------2--------------------------|------------2------------2-------|
D|-4------------------4-------------|---2-----------------------------|
A|----0---------0----------0--------|--------0--------0---------0-----|
A|----------------------------------|----------------------0 let ring-|


e|----------------------------------|---------------------------------|
A|--------------2---------------0---|-----------------0-------------0-|
G|-------2--------------------------|------------2------------2-------|
D|-4------------------4-------------|---2-----------------------------|
A|----0---------0----------0--------|--------0--------0---------0-----|
A|----------------------------------|----------------------0 let ring-|


e|----------------------------------|---------------------------------|
A|--------------0h2-------------0---|-----------------0-------------0-|
G|-------2--------------------------|------------2------------2-------|
D|-4------------------4-------------|---2-----------------------------|
A|----0---------0----------0--------|--------0--------0---------0-----|
A|----------------------------------|----------------------0 let ring-|


e|----------------------------------|---------------------------------|
A|--------------0h2-------------0---|-----------------0-------------0-|
G|-------2--------------------------|------------2------------2-------|
D|-4------------------4-------------|---2-----------------------------|
A|----0---------0----------0--------|--------0--------0---------0-----|
A|----------------------------------|----------------------0 let ring-|


e|----------------------------------|---------------------------------|
A|--------------0h2-------------0---|-----------------0-------------0-|
G|-------2--------------------------|------------2------------2-------|
D|-4------------------4-------------|---2-----------------------------|
A|----0---------0----------0--------|--------0--------0---------0-----|
A|----------------------------------|----------------------0 let ring-|


e|----------------------------------|---------------------------------|
A|--------------2---------------0---|-----------------0-------------0-|
G|-------2--------------------------|------------2------------2-------|
D|-4------------------4-------------|---2-----------------------------|
A|----0---------0----------0--------|--------0--------0---------0-----|
A|----------------------------------|----------------------0 let ring-|


Chorus:

0:37 "Man, I've been wasting so much time..."
e|--------------------------|-----------------------------------------|
A|----------0---------------|------------0----------------------------|
G|--------------------------|-----------------------------------------|
D|-------4--------------4---|---------2---------------2---------------|
A|----4--------------4------|------4---------------4------------------|
A|--0-------------0---------|---0---------------0---------------------|


e|--------------------------|-------------------|
A|----------0---------------|---------0---------|
G|--------------------------|-------------------|
D|-------6--------------6---|---------6---------|
A|-----9-------------9------|------6------------|
A|-0/9------------9---------|---6---------------|


e|--------------------------|-----------------------------------------|
A|----------0---------------|------------0----------------------------|
G|--------------------------|-----------------------------------------|
D|-------4--------------4---|---------2---------------2---------------|
A|----4--------------4------|------4---------------4------------------|
A|--0-------------0---------|---0---------------0---------------------|


e|--------------------------|-------------------|
A|----------0---------------|---------0---------|
G|--------------------------|-------------------|
D|-------6--------------6---|---------6---------|
A|-----9-------------9------|------6------------|
A|-0/9------------9---------|---6---------------|


e|--------------------------|-----------------------------------------|
A|----------0---------------|------------0----------------------------|
G|--------------------------|-----------------------------------------|
D|-------4--------------4---|---------2---------------2---------------|
A|----4--------------4------|------4---------------4------------------|
A|--0-------------0---------|---0---------------0---------------------|


e|--------------------------|-------------------|
A|----------0---------------|---------0---------|
G|--------------------------|-------------------|
D|-------6--------------6---|---------6---------|
A|-----9-------------9------|------6------------|
A|-0/9------------9---------|---6---------------|


Bridge:

0:53
e|--------------------------|----------------------------|
A|-----------4--------------|-4--------4----2p0----------|
G|-2/4--------------4-------|----------------------------|
D|-------2-------------2----|-------2--------------2-----|
A|-0------------0-----------|-0-------------0--------0---|
A|--------------------------|----------------------------|


e|-----------------------|-------------------------------|
A|-0p2------4-----2------|---2------------2--------------|
G|-----------------------|-------------------------------| 
D|-------1------------1--|--------1---2-------1----------| x2
A|-0-----------0---------|---0------------0-------0------|
A|-----------------------|-------------------------------|

Verse 2: same as verse 1

chorus

Outro:

1:45
e|--------------------------|----------------------------|
A|-----------4--------------|-4--------4----2p0----------|
G|-2/4--------------4-------|----------------------------|
D|-------2-------------2----|-------2--------------2-----|
A|-0------------0-----------|-0-------------0--------0---|
A|--------------------------|----------------------------|


e|-----------------------|-------------------------------|
A|-0p2------4-----2------|---2------------2--------------|
G|-----------------------|-------------------------------| 
D|-------1------------1--|--------1---2-------1----------| x3
A|-0-----------0---------|---0------------0-------0------|
A|-----------------------|-------------------------------|


e|--------------------------|----------------------------|
A|-----------4--------------|-4-------------4------------|
G|-2/4--------------4-------|----------------------------|
D|-------2-------------2----|-------2---------------2----|
A|-0------------0-----------|-0-------------0---------0--|
A|--------------------------|----------------------------|


e|-----------------------|-----------------------------x--|
A|-0p2------4-----2------|---2------------2------------0--|
G|-----------------------|-----------------------------2--| 
D|-------1------------1--|---------1--2-------1--------2--| 
A|-0-----------0---------|---0------------0-------0----0--|
A|-----------------------|-----------------------------0--|

Think that's about right but Meric changes picking patterns allll
the time and it's a right pain trying to get it all down


| /  slide up
| \  slide down
| h  hammer-on
| p  pull-off
| ~  vibrato
| +  harmonic
| x  Mute note
Related for Walking tab