Song name
# A B C D E F G H I J K L M N O P Q R S T U V W X Y Z

The Dodos - Neighbors tab

	Rubys out there on the block
e|-------------------------------------------------------|
B|-------------------------------------------------------|
G|---4-----------------------4---------------------------|
D|-------5---5-------5---5-------5---5-------5---5-------|
A|-------------------------------------------------------|
E|---3-3---3---3-3-3---3---3-3-3---3---3-3-3---3---3-----|

	Cause hes sick of feeling stuck
e|-------------------------------------------------------|
B|-------------------------------------------------------|
G|--11---------------------------------------------------|
D|--------12----12----------12----12---------------------|
A|-------------------------------------------------------|
E|--10-10----10----10-10-10----10----10------------------|

	Gone… hes getting free hes going long
e|-------------------------------------------------------|
B|-------------------------------------------------------|
G|---4-----------------------4---------------------------|
D|-------5---5-------5---5-------5---5-------5---5-------|
A|-------------------------------------------------------|
E|---3-3---3---3-3-3---3---3-3-3---3---3-3-3---3---3-----|

	I hope he does
e|-------------------------------------------------------|
B|-------------------------------------------------------|
G|---8--9----7--4----------------------------------------|
D|-------------------------------------------------------|
A|-------------------------------------------------------|
E|---7--8----6--3----------------------------------------|


	I know them they know me
e|--------------------------------------------------------|
B|--------------------------------------------------------|
G|-----4---2---0----0------0------------------------------|
D|----------------2---2---------0-------------------------| x4
A|----------------------------2---------------------------|
E|---3-3-3-3-3-3-3-3-3-3-3-3-3-3-3-3-3-3-3----------------|


e|-------------------------------------------------------|
B|-------------------------------------------------------|
G|---4-----------------------4-----------------------4---|
D|-------5---5-------5---5-------5---5-------5---5-------|
A|-------------------------------------------------------|
E|---3-3---3---3-3-3---3---3-3-3---3---3-3-3---3---3-3---|

Those are the pieces figure out the rest just put the pieces together. This is my first 
Hope it works for you!

- Jake Miller
Tap to rate this tab
# A B C D E F G H I J K L M N O P Q R S T U V W X Y Z