Song name
# A B C D E F G H I J K L M N O P Q R S T U V W X Y Z

The Dodos - Horny Hippies tab

This one is pretty easy, you just have to pluck pretty quick

The main verse is:

We were walking down the block when we thought the bomb went off and our hearts nearly 
at the sound
e|----5----5--3----3--3----3--3----3--3----3--0----0--0---0------0--|
B|-------5-------3-------0-------5-------5-------0-------------1---1|
G|----5---5---4---4---0---0---5---5---5---5---1---1---2---2---2---2-|
D|--7---7---5---5---5---5---5---5---5---5---2---2---2---2---2---2---|
A|------------------------------------------------------------------|
E|------------------------------------------------------------------|

The chorus is:

Yeah Iíll just stay in my home, in my home, in my home
e|----3----3--3----3--3----3--3----3--5----5--5----5--5----5--5----5|
B|-------5-------5-------3-------3-------5-------5-------5-------5--|
G|----5---5---5---5---4---4---4---4---5---5---5---5---5---5---5---5-|
D|--5---5---5---5---5---5---5---5---7---7---7---7---7---7---7---7---|
A|------------------------------------------------------------------|
E|------------------------------------------------------------------|

Yeah Iíll just stay in my home, in my home, in my home
e|----3----3--3----3--3----3--3----3--5----5--5----5--5----------5----|
B|-------5-------5-------3-------3-------5-------5-------------5---5--|
G|----5---5---5---5---4---4---4---4---5---5---5---5---5---5---5---5---|
D|--5---5---5---5---5---5---5---5---7---7---7---7---7---7---7---7-----|
A|--------------------------------------------------------------------|
E|--------------------------------------------------------------------|

And the ending is:

e|----5----5--3----3--3----3--3----3--3----3--0-----0---------------|
B|-------5-------3-------0-------5-------5------0---1---------------|
G|----5---5---4---4---0---0---5---5---5---5---1---1-2---------------|
D|--7---7---5---5---5---5---5---5---5---5---2---2---2---------------|
A|------------------------------------------------------------------|
E|------------------------------------------------------------------|

Thanks,

Jake Miller
Tap to rate this tab
# A B C D E F G H I J K L M N O P Q R S T U V W X Y Z