Song name
# A B C D E F G H I J K L M N O P Q R S T U V W X Y Z

The Dodos - Ashley Intro tab

tabbed by Andy Glover

So this is a tab for the intro to Ashley by the Dodos, as requested by someone on 
The strum pattern is about the same for the rest of the song. You can see my tutorial video 
the intro here: http://www.youtube.com/watch?v=tOC84xR8tF0

And my cover of the song here: http://www.youtube.com/watch?v=eiIXwzqGt3g

(G chord)
e---------------------------------|
B-3-----3-1-----1-0-----0-0-----0-|
G---0-------0-------0-------0-----|
D---------------------------------|
A---------------------------------|
E-3---3---3---3---3---3---3---3---|

(Am chord)        (Em chord)
e---------0---------------0-------|
B-1-----1-------1-0-----0-------0-|
G---2-------2-------0-------0-----|
D-----2-------2-------2---2---2---|
A-0-------0-------2---------------|
E---------------------------------|

(C chord)
e---------0---------------0-------|
B-1-----1-------1-1-----1-------1-|
G---0-------0-------0-------0-----|
D-----2-------2-------2-------2---|
A-3-------3-------3-------3-------|
E---------------------------------|

(G chord)
e---------------------------------|
B-0-----0-1-----1-0-----0-0-----0-|
G---0-------0-------0-------0-----|
D---------------------------------|
A---------------------------------|
E-3---3---3---3---3---3---3---3---|
Tap to rate this tab
# A B C D E F G H I J K L M N O P Q R S T U V W X Y Z