Song name
# A B C D E F G H I J K L M N O P Q R S T U V W X Y Z

The Dodos - Longform tab

Longform - The Dodos (Intro)

Tuning: Open G (DGDGBD)

First part of the very first strumming part
--2----0----|
--1----0----|
--0----0----|
--2----2----|
--0----0----|
--x----x----|  x2

Second part of first strumming part (where the voice comes in on the upbeats)
--2----0--0-|
--1----0--0-|
--0----0--0-|
--2----2--2-|
--0----0--0-|
--0----x--2-|  x4

Second strumming part
--0-0-0-0-0-0-0---|
--0-3-0-0-0-0-0---|
--0-0-0-0-0-2-0---|
--5-5-5-5-5-5-5---|
--0-0-0-0-0-0-0---|
--x-x-x-x-x-x-x---|  x8

From there, it's too hard to tell what he does.  Great song though!
Tap to rate this tab
 
# A B C D E F G H I J K L M N O P Q R S T U V W X Y Z