The Dodos - Notes tab

Notes
Meric Long
Dodo Bird

Intro: (3x)

e-7---------7-----5---2--2/3---------3-----2-----------------------------------------------------|
B----------------------------------------------3--3/5--------5-----3---3--3/5--------5-----3---3-|
G-------0-------0----------------0-------0---------------0-------0----------------0------0-------|
D-5---5---5-------4---0--0/2---2---2-------0-----------------------------------------------------|
A----------------------------------------------2--2/3--3---3-------2------2/3---3---3------2-----|
E----------------------------------------------------------------------5-----------------------5-|

Then: (1x)

e-7---------7-----5---2--2/3---------3-----2-----------------------------------------------------|
B----------------------------------------------3--3/5--------5---5---------5-----5-----5------5--|
G-------0-------0----------------0-------0---------------0-------------0-----------------0-------|
D-5---5---5-------4---0--0/2---2---2-------0-----------------------------------------------------|
A----------------------------------------------2--2/3--3---3-----3---3---3---3---3---3-----3--3--|
E------------------------------------------------------------------------------------------------|
Tap to rate this tab
 
# A B C D E F G H I J K L M N O P Q R S T U V W X Y Z