Song name
# A B C D E F G H I J K L M N O P Q R S T U V W X Y Z

The Dodos - Park Song tab

Park Song
The Dodos
Visiter

Intro/Verse (Palm Muted)
  Dm                Dbaug             F
e---------5-------|---------5-------|---------5-------|---------5-------|
B-----6-------6---|-----6-------6---|-----6-------6---|-----6-----------|
G-7-7---7---7---7-|-6-6---6---6---6-|-5-5---5---5---5-|-5-5---5---5-5-6-|
D-----------------|-----------------|-----------------|-----------------|
A-----------------|-----------------|-----------------|-----------------|
E-----------------|-----------------|-----------------|-----------------|

Chorus/Outro
  Eb                Dm                Cm                Bb
e-----------------|-----------------|-----------------|-----------------|
B-----------------|-----------------|-----------------|-----------------|
G---------3-------|---------2-------|---------0-------|-----------------|
D-----5-------5---|-----3-------3---|-----1-------1---|---------3-------|
A-6-6---6---6---6-|-5-5---5---5---5-|-3-3---3---3---3-|-----5-------5---|
E-----------------|-----------------|-----------------|-6-6---6---6---6-|
Tap to rate this tab
 
# A B C D E F G H I J K L M N O P Q R S T U V W X Y Z