Song name
# A B C D E F G H I J K L M N O P Q R S T U V W X Y Z

The Dodos - Dontt Stop tab

Dodos - Don't stop intro

Tempo = 150bpm 3/4
Steel Guitar

It's very fast. Don't give up : )


E |----------------------------------------|
B |----------------------------------------|
G |--------------0--0-----------0----------|
D |--------3-----------3-----3-----3-------|
A |-----------3-----------3-----------3----|
E |--1-------------------------------------|


----------------------------------------|
----------------------------------------|
--------------0--0-----------0----------|
--------3-----------3-----3-----3-------|
-----------3-----------3-----------3----|
--1-------------------------------------|


----------------------------------------|
----------------------------------------|
--------------0--0-----------0----------|
--------2-----------2-----2-----2-------|
-----------3-----------3-----------3----|
--0-------------------------------------|


----------------------------------------||
----------------------------------------||
--------------0--0-----------0----------||
--------2-----------2-----2-----2-------||
-----------3-----------3-----------3----||
--0-------------------------------------||
Tap to rate this tab
# A B C D E F G H I J K L M N O P Q R S T U V W X Y Z