Song name
# A B C D E F G H I J K L M N O P Q R S T U V W X Y Z

The Dodos - Black Night tab

hello again i figured out black night through reasearching live preformances and this is 
what i came up with.
hope you like it. pluck it and transition real fast :D

r= ring out
(_)= just these notes/ chord etc.
/= slide
p= pull off
x= mute (with the exeption of multiplying)

e|-------------------------------------------------------------------------|
B|-------------------------------------------------------------------------|
G|-------------------------------------------------------------------------|
D|----6--6--6--6-----------------------------------------------------------|
A|---7--7--7--7------------------------------------------------------------|
E|--0--0--0--0-------------------------------------------------------------|

*intro* repeat 8 times.


e|----------------------------------------------------------------------------|
B|----------------------------------------------------------------------------|
G|----------------------------------------------------------------------------|
D|----6--6--6--6--6--6--6--6--9--9--9--9--7--7--11-11-(6--6--6--6)----6/4p0---|
A|---7--7--7--7--7--7--7--7--7--7--7--7--7--7--7--7--(7--7--7--7)--x8---------|
E|--0--0--0--0--0--0--0--0--0--0--0--0--0--0--0--0--(0--0--0--0)------4/2p0---|

e|-----------------------------------------------------------------------------|
B|-----------------------------------------------------------------------------|
G|-----------------------------------------------------------------------------|
D|----6--6--6--6--6--6--6--6--9--9--9--9--7--7--11-11-(6--6--6--6)----44/55----|
A|---7--7--7--7--7--7--7--7--7--7--7--7--7--7--7--7--(7--7--7--7)--x8----------|
E|--0--0--0--0--0--0--0--0--0--0--0--0--0--0--0--0--(0--0--0--0)------22/33----|

* first verse*


e|-------------------------------------------------------------------------|
B|-------------------------------------------------------------------------|
G|----6--6--6--6--6--6--6--6---9---9---9---9--13--13--13--13---------------|
D|---7--7--7--7--7--7--7--7--11--11--11--11--14--14--14--14----------------|
A|-------------------------------------------------------------------------|
E|--0--0--0--0--0--0--0--0--0---0---0---0---0---0---0---0------------------|
*repeat this 3 times then...

e|-------------------------------------------------------------------------|
B|-------------------------------------------------------------------------|
G|---(6--6--6--6)----------------------------------------------------------|
D|--(7--7--7--7)-------6/4p0-----------------------------------------------|
A|----------------x4-------------------------------------------------------|
E|-(0--0--0--0)--------4/2p0-----------------------------------------------|

*second verse*
*repeat first and second verse 2 times. at the end of the second verse do this:
Note: skip the slide and pull off at end of second verse and just go into this.

e|-------------------------------------------------------------------------|
B|-------------------------------------------------------------------------|
G|-------------------------------------------------------------------------|
D|-6r---666--66--6r---666-66--6r---666-66--6r---666-66---------------------|
A|-7r---777--77--7r---777-77--7r---777-77--7r---777-77--x2--6/4-4p0--------|
E|-0r------------9r-----------0r-----------4r---------------4/2-2p0--------|

e|-------------------------------------------------------------------------|
B|-------------------------------------------------------------------------|
G|-------------------------------------------------------------------------|
D|----6--6--6--6-----------------------------------------------------------|
A|---7--7--7--7---x8-------------------------------------------------------|
E|--0--0--0--0-------------------------------------------------------------|



*bridge below*
"you wanna walk, you wanna walk, you wanna walk right through it"
e|-------------------------------------------------------------------------|
B|-------------------------------------------------------------------------|
G|-------------------------------------------------------------------------|
D|------6-----6-----6-----6-----6-----6-----6-----6------------------------|
A|---7-----7-----7-----7-----7-----7-----7-----7---------------------------|
E|--0--0--0--0--0--0--0--0--9--9--9--9--9--9--9--9-------------------------|

e|-------------------------------------------------------------------------|
B|-------------------------------------------------------------------------|
G|-------------------------------------------------------------------------|
D|------6-----6-----6-----6-----6-----6-----6-----6------------------------|
A|---7-----7-----7-----7-----7-----7-----7-----7---------------------------|
E|--0--0--0--0--0--0--0--0--4--4--4--4--4--4--4--4-------------------------|

*play above twice* then go into strumming like so:
note: strum up and down

e|-------------------------------------------------------------------------|
B|-------------------------------------------------------------------------|
G|-------------------------------------------------------------------------|
D|--x-x-6-6-x-x-6-6-x-x-6-6-x-x-6-6----------------------------------------|
A|--x-x-7-7-x-x-7-7-x-x-7-7-x-x-7-7--x2------------------------------------|
E|--0-0-0-0-0-0-0-0-0-0-0-0-0-0-0-0----------------------------------------|
    u d u d

then:
e|-------------------------------------------------------------------------|
B|-------------------------------------------------------------------------|
G|-------------------------------------------------------------------------|
D|--x-x-6-6-x-x-6-6-x-x-6-6-x-x-6-6-x-x-9-9-x-x-9-9-x-x-7-7-x-x-11-11------|
A|--x-x-7-7-x-x-7-7-x-x-7-7-x-x-7-7-x-x-7-7-x-x-7-7-x-x-7-7-x-x-0--0-------|
E|--0-0-0-0-0-0-0-0-0-0-0-0-0-0-0-0-0-0-0-0-0-0-0-0-0-0-0-0-0-0-0--0-------|
    u d u d

e|-------------------------------------------------------------------------|
B|-------------------------------------------------------------------------|
G|-------------------------------------------------------------------------|
D|--x-x-6-6-x-x-6-6-x-x-6-6-x-x-6-6---------66/22p00-----------------------|
A|--x-x-7-7-x-x-7-7-x-x-7-7-x-x-7-7--x2------------------------------------|
E|--0-0-0-0-0-0-0-0-0-0-0-0-0-0-0-0---------44/22p00-----------------------|

e|-------------------------------------------------------------------------|
B|-------------------------------------------------------------------------|
G|-------------------------------------------------------------------------|
D|--x-x-6-6-x-x-6-6-x-x-6-6-x-x-6-6-x-x-9-9-x-x-9-9-x-x-7-7-x-x-11-11------|
A|--x-x-7-7-x-x-7-7-x-x-7-7-x-x-7-7-x-x-7-7-x-x-7-7-x-x-7-7-x-x-0--0-------|
E|--0-0-0-0-0-0-0-0-0-0-0-0-0-0-0-0-0-0-0-0-0-0-0-0-0-0-0-0-0-0-0--0-------|


e|-------------------------------------------------------------------------|
B|-------------------------------------------------------------------------|
G|-------------------------------------------------------------------------|
D|--x-x-6-6-x-x-6-6-x-x-6-6-x-x-6-6---------44/55--------------------------|
A|--x-x-7-7-x-x-7-7-x-x-7-7-x-x-7-7--x2------------------------------------|
E|--0-0-0-0-0-0-0-0-0-0-0-0-0-0-0-0---------22/33--------------------------|


*next part*

e|-------------------------------------------------------------------------|
B|-------------------------------------------------------------------------|
G|--x-x-6-6-x-x-6-6-x-x-6-6-x-x-6-6-x-x-9--9--x-x-9--9--x-x-13-13-x-x-14-13|
D|--x-x-7-7-x-x-7-7-x-x-7-7-x-x-7-7-x-x-11-11-x-x-11-11-x-x-14-14-x-x-14-14|
A|--0-0-0-0-0-0-0-0-0-0-0-0-0-0-0-0-0-0-0--0--0-0-0--0--0-0-0--0--0-0-0--0-|
E|--0-0-0-0-0-0-0-0-0-0-0-0-0-0-0-0-0-0-0--0--0-0-0--0--0-0-0--0--0-0-0--0-|

*do this part 3 times and on the 4th time:

e|-------------------------------------------------------------------------|
B|-------------------------------------------------------------------------|
G|--x-x-6-6-x-x-6-6-x-x-6-6-x-x-6-6----------------------------------------|
D|--x-x-7-7-x-x-7-7-x-x-7-7-x-x-7-7----------------------------------------|
A|--0-0-0-0-0-0-0-0-0-0-0-0-0-0-0-0--x2------------------------------------|
E|--0-0-0-0-0-0-0-0-0-0-0-0-0-0-0-0----------------------------------------|

then go into this
e|-------------------------------------------------------------------------|
B|-------------------------------------------------------------------------|
G|-------------------------------------------------------------------------|
D|--6-6-6-6-6-6-6-6-6-6-6-6-6-6-6-6-6-6-6-6-6-6-6-6-6-6-6-6-6-6-6-6--------|
A|--7-7-7-7-7-7-7-7-7-7-7-7-7-7-7-7-7-7-7-7-7-7-7-7-7-7-7-7-7-7-7-7-x2-----|
E|--0-0-0-0-0-0-0-0-9-9-9-9-9-9-9-9-0-0-0-0-0-0-0-0-4-4-4-4-4-4-4-4--------|
    u d u d

*mute this*

e|-------------------------------------------------------------------------|
B|-------------------------------------------------------------------------|
G|-------------------------------------------------------------------------|
D|-66-66-66-666------------------------------------------------------------|
A|-77-77-77-777---x2-------------------------------------------------------|
E|-00-00-00-000------------------------------------------------------------|

*solo*

e|-------------------------------------------------------------------------|
B|-------------------------------------------------------------------------|
G|-------------------------------------------------------------------------|
D|--x-x-6-6-x-x-6-6-x-x-6-6-x-x-6-6-x-x-7-7-x-x-7-7-x-x-7-7-x-x-7-7--------|
A|--x-x-7-7-x-x-7-7-x-x-7-7-x-x-7-7-x-x-9-9-x-x-9-9-x-x-9-9-x-x-9-9--------|
E|--0-0-0-0-0-0-0-0-0-0-0-0-0-0-0-0-0-0-0-0-0-0-0-0-0-0-0-0-0-0-0-0--------|
    u d u d

e|----------------------------------------------------------------------------|
B|----------------------------------------------------------------------------|
G|----------------------------------------------------------------------------|
D|--x-x-7-7-x-x-7-7-x-x-7-7-x-x-7-7-x-x-11-11-x-x-11-11-x-x-11-11-x-x-11-11---|
A|--x-x-7-7-x-x-7-7-x-x-7-7-x-x-7-7-x-x-12-12-x-x-12-12-x-x-12-12-x-x-12-12---|
E|--0-0-0-0-0-0-0-0-0-0-0-0-0-0-0-0-0-0-0--0--0-0-0--0--0-0-0--0--0-0-0--0----|


e|-----------------------------------------------------------------------------|
B|-----------------------------------------------------------------------------|
G|-----------------------------------------------------------------------------|
D|--x-x-9--9--x-x-9--9--x-x-9--9--x-x-9--9--x-x-9-9--x-x-9-9-x-x-9-9-x-x-9-9---|
A|--x-x-11-11-x-x-11-11-x-x-11-11-x-x-11-11-x-x-9-9--x-x-9-9-x-x-9-9-x-x-9-9---|
E|--0-0-0--0--0-0-0--0--0-0-0--0--0-0-0--0--0-0-0-0--0-0-0-0-0-0-0-0-0-0-0-0---|


e|-------------------------------------------------------------------------|
B|-------------------------------------------------------------------------|
G|-------------------------------------------------------------------------|
D|--x-x-11-11-x-x-11-11-x-x-11-11-x-x-11-11-x-x-7-7-x-x-7-7-x-x-7-7-x-x-7-7|
A|--x-x-12-12-x-x-12-12-x-x-12-12-x-x-12-12-x-x-7-7-x-x-7-7-x-x-7-7-x-x-7-7|
E|--0-0-0--0--0-0-0--0--0-0-0--0--0-0-0--0--0-0-0-0-0-0-0-0-0-0-0-0-0-0-0-0|

go into this:
e|-------------------------------------------------------------------------|
B|-------------------------------------------------------------------------|
G|-------------------------------------------------------------------------|
D|-66/44p00--x-x-6-6-x-x-6-6-x-x-6-6-x-x-6-6-------------------------------|
A|--x-x-7-7--x-x-7-7-x-x-7-7-x-x-7-7-x-x-7-7-----x4------------------------|
E|-44/22p00--0-0-0-0-0-0-0-0-0-0-0-0-0-0-0-0-------------------------------|

e|-------------------------------------------------------------------------|
B|-------------------------------------------------------------------------|
G|-------------------------------------------------------------------------|
D|---666--666--666--666-------6--------------------------------------------|
A|---777--777--777--777--x2---7--------------------------------------------|
E|---000--000--000--000-------0--------------------------------------------|
Tap to rate this tab
# A B C D E F G H I J K L M N O P Q R S T U V W X Y Z