Song name
# A B C D E F G H I J K L M N O P Q R S T U V W X Y Z

The Dodos - Fables tab

% THE DODOS - FABLES
% This tab is an updated version of one I previously put together by ear and        % 
watching video, so now I think it is the most
% accurate. This is my second tab ever so please leave some feedback!

Open G Tuning - D G D G B D

D - Down Stroke
U - Up Stroke

Intro/Main Riff:

   D    D U D U D D  D U D U D
D|-0----0-0-0-0---0--0-0-0-0----|
B|-0----0-0-0-0---0--0-0-0-0----|
G|-0----0-0-0-0-0-0--0-0-0-0-0--|
D|-0h2--0-0-0-0-0-0--0-0-0-0-0--|
G|-0----0-0-0-0-0----0-0-0-0-0--|
D|-0h2--x-x-x-x-x----x-x-x-x-x--|  x4

Verse:
          "We spoke today to a jury..."

   D   D U D U D D  D U D U D D  D U D U D D  D U D U D

D|-0---0-0-0-0---0--0-0-0-0---0--0-0-0-0---0--0-0-0-0-0--|
B|-0---0-0-0-0---0--0-0-0-0---0--0-0-0-0---0--0-0-0-0-0--|
G|-0---0-0-0-0-0-0--0-0-0-0-0-0--0-0-0-0-0-0--0-0-0-0-0--|
D|-0h2-0-0-0-0-0-0--4-4-4-4-4-4--2-2-2-2-2-2--2-2-2-2-2--|
G|-0---0-0-0-0-0----0-0-0-0-0----0-0-0-0-0----0-0-0-0-0--|
D|-0h2-x-x-x-x-x----4-4-4-4-4----2-2-2-2-2----2-2-2-2-2--|  x4

Bridge:
        "Remember when you were my accomplice..."

   D  U  D  U  D  D   D U D U D D  D U D U D D  D U D U D D

D|-0--0--0--0-----0---0-0-0-0---0--0-0-0-0---0--0-0-0-0---0--|
B|-0--0--0--0-----0---0-0-0-0---0--0-0-0-0---0--0-0-0-0---0--|
G|-0--0--0--0--0--0---5-5-5-5-5-5--0-0-0-0-0-0--0-0-0-0-0-0--|
D|-10-10-10-10-10-10--x-x-x-x-x-x--5-5-5-5-5-5--4-4-4-4-4-4--|
G|-0--0--0--0--0------0-0-0-0-0----0-0-0-0-0----0-0-0-0-0----|
D|-10-10-10-10-10-----5-5-5-5-5----5-5-5-5-5----4-4-4-4-4----|


         "Now we forget why we started this..."

   D U D U D D  D U D U D D  D U D U D D  D U D U D D

D|-0-0-0-0---0--0-0-0-0---0--0-0-0-0---0--0-0-0-0---0--|
B|-0-0-0-0---0--0-0-0-0---0--0-0-0-0---0--0-0-0-0---0--|
G|-0-0-0-0-0-0--0-0-0-0-0-0--0-0-0-0-0-0--0-0-0-0-0-0--|
D|-5-5-5-5-5-5--4-4-4-4-4-0--2-2-2-2-2-2--2-2-2-2-2-2--|
G|-0-0-0-0-0----0-0-0-0-0----0-0-0-0-0----0-0-0-0-0----|
D|-5-5-5-5-5----4-4-4-4-4----2-2-2-2-2----2-2-2-2-2----|


Chorus:
     "I don't want to go in the fire.."

   D U D U D D D  D  U  D  U  D  D   D U D U D D  D U D U D D

D|-0-0-0-0-0---0--0--0--0--0-----0---0-0-0-0---0--0-0-0-0---0--|
B|-0-0-0-0-0---0--0--0--0--0-----0---0-0-0-0---0--0-0-0-0---0--|
G|-0-0-0-0-0-0-0--0--0--0--0--0--0---0-0-0-0-0-0--0-0-0-0-0-0--|
D|-0-0-0-0-0-0-0--12-12-12-12-12-12--9-9-9-9-9-9--7-7-7-7-7-7--|
G|-0-0-0-0-0-0----x--x--x--x--x------0-0-0-0-0----0-0-0-0-0----|
D|-x-x-x-x-x-x----10-10-10-10-10-----9-9-9-9-9----7-7-7-7-7----| x3

Interlude:

   D   D U D U D D    D D U D U D

D|-0---0-0-0-0-0-0~~~-0-0-0-0-0-0--|
B|-0---0-0-0-0-0-0~~~-0-0-0-0-0-0--|
G|-0---0-0-0-0-0-2//4-0-0-0-0-0-0--|
D|-0h2-0-0-0-0-0-0~~~-0h2-2-2-2-2--|
G|-0---0-0-0-0-0-2//4-0-0-0-0-0-0--|
D|-0h2-x-x-x-x-x-x~~~-0h2-2-2-2-2--|x3

   D   D U D U D

D|-0---0-0-0-0-0--|
B|-0---0-0-0-0-0--|
G|-0---0-0-0-0-0--|
D|-0h2-0-0-0-0-0--|
G|-0---0-0-0-0-0--|
D|-0h2-x-x-x-x-x--|x2


Main Riff

Verse

Bridge

Chorus

Outro (variations of the main riff)

Solo:

D|-----------------------------0-12-10-12----12---12----|
B|----12--10--12-----12----12--------------12---10------|
G|---0------------12----11--------9--9--9--9--9-----9---|
D|-12---12--12--12--12-12-12--0-------------------------|
G|------------------------------------------------------|
D|------------------------------------------------------|x2
Tap to rate this tab
 
# A B C D E F G H I J K L M N O P Q R S T U V W X Y Z