Song name
# A B C D E F G H I J K L M N O P Q R S T U V W X Y Z

The Dogma - Black Roses tab

http://www.thedogma.net/home.htm

BLACK ROSES
As recorded by The Dogma
(From the 2006 Album BLACK ROSES)


Transcribed by Mat'thew Bowen

 

 

Gtr I (D# G# C# F# A# D#) - 'Lead Electric'
Gtr II (D# G# C# F# A# D#) - 'Rhythm Electric'
Gtr III (D# G# C# F# A# D#) - 'Lead Strings'
Gtr IV (D# G# C# F# A# D#) - 'Rhythm Strings'


    Q=120
   4/4
    Gtr II
    PM--------------|      PM--------------|
    S S E E S E S S S Q    S S E E S E S S S Q
||-----------------------|----------------------||
||o----------------------|---------------------o||
||-----------------------|----------------------||
||-----------------------|----------------------||
||o-------7---8-5-5-5-7--|-------3---5-2-2-2-3-o||
||--0-0-0---0------------|-0-0-0---0------------||


  PM---------------|      PM---------------|
  S  S E E S E S S S Q    S  S E E S E S S S Q
|-----------------------|-----------------------|
|-----------------------|-----------------------|
|-----------------------|-----------------------|
|-----------------------|-----------------------|
|--------7---8-5-5-5-7--|--------3---5-2-2-2-3--|
|-0--0-0---0------------|-0--0-0---0------------|
|
| Gtr III
| H.                 Q    H.                 Q
|-0------------------2--|-3------------------2--|
|-----------------------|-----------------------|
|-----------------------|-----------------------|
|-----------------------|-----------------------|
|-----------------------|-----------------------|
|-----------------------|-----------------------|


  PM---------------|      PM--------------|
  S  S E E S E S S S Q    S S E E S E S S S Q
|-----------------------|----------------------|
|-----------------------|----------------------|
|-----------------------|----------------------|
|-----------------------|----------------------|
|--------7---8-5-5-5-7--|-------3---5-2-2-2-3--|
|-0--0-0---0------------|-0-0-0---0------------|
|
| H.                 Q    W
|-----------------------|----------------------|
|-0---------------------|----------------------|
|--------------------2--|-0--------------------|
|-----------------------|----------------------|
|-----------------------|----------------------|
|-----------------------|----------------------|


    PM---------------------------------------|
    s s s s e s e. s s q    s s s s e s e. s s Q   4x
||------------------------|------------------------||
||o-----------------------|-----------------------o||
||------------------------|------------------------||
||------------------------|------------------------||
||o-----------------------|-----------------------o||
||--0-0-0-0-0-0-0--0-0-0--|-0-0-0-0-0-0-0--0-0-3---||


  W         +W           W          W
|---------|------------|----------|------|
|---------|------------|----------|------|
|---------|------------|----------|------|
|-7-------|-(7)--------|-4--------|-5----|
|-5-------|-(5)--------|-2--------|-3----|
|---------|------------|----------|------|


                                                    PM----|   PM----|   PM|
  W          +W           W          +W           E S S S S E S S S S E S S
|----------|------------|----------|------------|---------------------------|
|----------|------------|----------|------------|---------------------------|
|----------|------------|----------|------------|---------------------------|
|----------|------------|-2--------|-(2)--------|-5---------5---------5-----|
|-2--------|-(2)--------|-0--------|-(0)--------|-3---------3---------3-----|
|-0--------|-(0)--------|----------|------------|---0-0-0-0---0-0-0-0---0-0-|


    PM----|   PM----|    PM|
  E S S S S E S S S S E  S S   W          +W
|----------------------------|----------|--------|
|----------------------------|----------|--------|
|----------------------------|----------|--------|
|-7---------7---------7------|----------|--------|
|-5---------5---------5------|-2--------|-(2)----|
|---0-0-0-0---0-0-0-0----0-0-|-0--------|-(0)----|


    PM---------------------------------------|
    s s s s e s e. s s q    s s s s e s e. s s Q  4x
||------------------------|-----------------------||
||o-----------------------|----------------------o||
||------------------------|-----------------------||
||------------------------|-----------------------||
||o-----------------------|----------------------o||
||--0-0-0-0-0-0-0--0-0-0--|-0-0-0-0-0-0-0--0-0-3--||


  W          +W           W          W
|----------|------------|----------|------|
|----------|------------|----------|------|
|----------|------------|----------|------|
|-7--------|-(7)--------|-4--------|-5----|
|-5--------|-(5)--------|-2--------|-3----|
|----------|------------|----------|------|


    W          +W           W          +W
||-----------|------------|----------|------------|
||o----------|------------|----------|------------|
||-----------|------------|----------|------------|
||-----------|------------|-2--------|-(2)--------|
||o-2--------|-(2)--------|-0--------|-(0)--------|
||--0--------|-(0)--------|----------|------------|


    PM----|   PM----|   PM|     PM----|   PM----|   PM|
  E S S S S E S S S S E S S   E S S S S E S S S S E S S   W          +W
|---------------------------|---------------------------|----------|---------||
|---------------------------|---------------------------|----------|--------o||
|---------------------------|---------------------------|----------|---------||
|-5---------5---------5-----|-7---------7---------7-----|----------|---------||
|-3---------3---------3-----|-5---------5---------5-----|-2--------|-(2)----o||
|---0-0-0-0---0-0-0-0---0-0-|---0-0-0-0---0-0-0-0---0-0-|-0--------|-(0)-----||


    PM--------------|      PM--------------|
    S S E E S E S S S Q    S S E E S E S S S Q
||-----------------------|-----------------------||
||o----------------------|----------------------o||
||-----------------------|-----------------------||
||-----------------------|-----------------------||
||o-------7---8-5-5-5-7--|-------3---5-2-2-2-3--o||
||--0-0-0---0------------|-0-0-0---0-------------||


    W          +W           W          +W
||-----------|------------|----------|------------|
||o----------|------------|----------|------------|
||-----------|------------|----------|------------|
||-----------|------------|-2--------|-(2)--------|
||o-2--------|-(2)--------|-0--------|-(0)--------|
||--0--------|-(0)--------|----------|------------|


    PM----|   PM----|   PM|     PM----|   PM----|   PM|
  E S S S S E S S S S E S S   E S S S S E S S S S E S S   W          +W
|---------------------------|---------------------------|----------|---------||
|---------------------------|---------------------------|----------|--------o||
|---------------------------|---------------------------|----------|---------||
|-5---------5---------5-----|-7---------7---------7-----|----------|---------||
|-3---------3---------3-----|-5---------5---------5-----|-2--------|-(2)----o||
|---0-0-0-0---0-0-0-0---0-0-|---0-0-0-0---0-0-0-0---0-0-|-0--------|-(0)-----||


  Gtr III
  Q   E E H         Q   E E Q   Q     Q   E E H         Q   E E Q   Q
|-----3-2-3-------|-----3-2-0-------|-----5-3-5-------|-----5-3-2---3---|
|-----------------|-------------3---|-----------------|-----------------|
|-----------------|-----------------|-----------------|-----------------|
|-----------------|-----------------|-----------------|-----------------|
|-----------------|-----------------|-----------------|-----------------|
|-----------------|-----------------|-----------------|-----------------|
|
| Gtr IV
| E E E E E E E E   E E E E E E E E   E E E E E E E E   E E E E E E E E
|-----------------|-----------------|-----------------|-----------------|
|-----------------|-----------------|-----------------|-----------------|
|-----------------|-----------------|-----------------|-----------------|
|-2-2-2-2-2-2-2-2-|-2-2-2-2-2-2-2-2-|-----------------|-----------------|
|-----------------|-----------------|-3-3-3-3-3-3-3-3-|-3-3-3-3-3-3-3-3-|
|-----------------|-----------------|-----------------|-----------------|


  Q   E E H         Q   E E Q   Q     Q   E E H         Q   E E Q   Q
|-----7-5-7-------|-----7-5-3---2---|-----5-3-5-------|-----2-0-2---3------|
|-----------------|-----------------|-----------------|--------------------|
|-----------------|-----------------|-----------------|--------------------|
|-----------------|-----------------|-----------------|--------------------|
|-----------------|-----------------|-----------------|--------------------|
|-----------------|-----------------|-----------------|--------------------|
|
| E E E E E E E E   E E E E E E E E   E E E E E E E E   E E E E E E E E
|-----------------|-----------------|-----------------|--------------------|
|-----------------|-----------------|-----------------|--------------------|
|-----------------|-----------------|-----------------|--------------------|
|-----------------|-----------------|-----------------|--------------------|
|-----------------|-----------------|-5-5-5-5-5-5-5-5-|-2-2-2-2-2-2-2-2----|
|-3-3-3-3-3-3-3-3-|-3-3-3-3-3-3-3-3-|-----------------|--------------------|


    Gtr II
    PM-----------------------------------------------------------------
    S S S S S S S S S S S S S S S S   S S S S S S S S S S S S S S S S
||----------------------------------|---------------------------------|
||o---------------------------------|---------------------------------|
||----------------------------------|---------------------------------|
||----------------------------------|---------------------------------|
||o---------------------------------|---------------------------------|
||--0-0-0-0-0-0-0-0-0-0-0-0-0-0-0-0-|-0-0-0-0-0-0-0-0-0-0-0-0-0-0-0-0-|


 -----------------------------------------------------------------|
  S S S S S S S S S S S S S S S S   S S S S S S S S S S S S S S S S
|---------------------------------|------------------------------------|
|---------------------------------|------------------------------------|
|---------------------------------|------------------------------------|
|---------------------------------|------------------------------------|
|-3-3-3-3-3-3-3-3-3-3-3-3-3-3-3-3-|-3-3-3-3-3-3-3-3-3-3-3-3-3-3-3-3----|
|---------------------------------|------------------------------------|


  PM-----------------------------------------------------------------
  S S S S S S S S S S S S S S S S   S S S S S S S S S S S S S S S S
|---------------------------------|---------------------------------|
|---------------------------------|---------------------------------|
|---------------------------------|---------------------------------|
|---------------------------------|---------------------------------|
|---------------------------------|---------------------------------|
|-3-3-3-3-3-3-3-3-3-3-3-3-3-3-3-3-|-3-3-3-3-3-3-3-3-3-3-3-3-3-3-3-3-|


 -----------------------------------------------------------------|
  S S S S S S S S S S S S S S S S   S S S S S S S S S S S S S S S S
|---------------------------------|-----------------------------------||
|---------------------------------|----------------------------------o||
|---------------------------------|-----------------------------------||
|-0-0-0-0-0-0-0-0-0-0-0-0-0-0-0-0-|-----------------------------------||
|---------------------------------|-2-2-2-2-2-2-2-2-2-2-2-2-2-2-2-2--o||
|---------------------------------|-----------------------------------||


    W          +W           W          +W
||-----------|------------|----------|------------|
||o----------|------------|----------|------------|
||-----------|------------|----------|------------|
||-----------|------------|-5--------|-(5)--------|
||o-2--------|-(2)--------|-3--------|-(3)--------|
||--0--------|-(0)--------|----------|------------|


  W          +W           W          W
|----------|------------|----------|-------||
|----------|------------|----------|------o||
|----------|------------|----------|-------||
|----------|------------|-7--------|-4-----||
|-5--------|-(5)--------|-5--------|-2----o||
|-3--------|-(3)--------|----------|-------||


  W          +W           W          +W
|----------|------------|----------|------------|
|----------|------------|----------|------------|
|----------|------------|----------|------------|
|----------|------------|-5--------|-(5)--------|
|-2--------|-(2)--------|-3--------|-(3)--------|
|-0--------|-(0)--------|----------|------------|


  W          +W           W          W
|----------|------------|----------|------|
|----------|------------|----------|------|
|----------|------------|----------|------|
|----------|------------|-7--------|-4----|
|-5--------|-(5)--------|-5--------|-2----|
|-3--------|-(3)--------|----------|------|


  W          +W           W          +W
|----------|------------|----------|------------|
|----------|------------|----------|------------|
|----------|------------|----------|------------|
|----------|------------|-5--------|-(5)--------|
|-2--------|-(2)--------|-3--------|-(3)--------|
|-0--------|-(0)--------|----------|------------|


  W          +W           W          W
|----------|------------|----------|------|
|----------|------------|----------|------|
|----------|------------|----------|------|
|----------|------------|-7--------|-4----|
|-5--------|-(5)--------|-5--------|-2----|
|-3--------|-(3)--------|----------|------|


  W          +W           W          +W
|----------|------------|----------|------------|
|----------|------------|----------|------------|
|----------|------------|----------|------------|
|----------|------------|-5--------|-(5)--------|
|-2--------|-(2)--------|-3--------|-(3)--------|
|-0--------|-(0)--------|----------|------------|


  W          +W           W          W
|----------|------------|----------|------*|
|----------|------------|----------|------*|
|----------|------------|----------|------*|
|----------|------------|-7--------|-4----*|
|-5--------|-(5)--------|-5--------|-2----*|
|-3--------|-(3)--------|----------|------*|




--------------------------------------------------------------------------------


Duration Legend
---------------
W - whole; H - half; Q - quarter; E - 8th; S - 16th; T - 32nd; X - 64th; a - acciaccatura
+ - note tied to previous; . - note dotted; .. - note double dotted
Uncapitalized letters represent notes that are staccato (1/2 duration)
Irregular groupings are notated above the duration line
Duration letters will always appear directly above the note/fret number it represents the
duration for.  Duration letters with no fret number below them represent rests.  Multi-
bar rests are notated in the form Wxn, where n is the number of bars to rest for.  Low
melody durations appear below the staff

Tablature Legend
----------------
 h   - hammer-on
 p   - pull-off
 b   - bend
 pb  - pre-bend
 r   - bend release (if no number after the r, then release immediately)
 /\  - slide into or out of (from/to "nowhere")
 s   - legato slide
 S   - shift slide
 - natural harmonic
[n]  - artificial harmonic
n(n) - tapped harmonic
 ~   - vibrato
 tr  - trill
 T   - tap
 TP  - trem. picking
 PM  - palm muting
\n/  - tremolo bar dip; n = amount to dip
 \n  - tremolo bar down
 n/  - tremolo bar up
/n\  - tremolo bar inverted dip
 =   - hold bend; also acts as connecting device for hammers/pulls
 <> - volume swell (louder/softer)
 x   - on rhythm slash represents muted slash
 o   - on rhythm slash represents single note slash

Misc Legend
-----------
 |  - bar
||  - double bar
||o - repeat start
o|| - repeat end
*|  - double bar (ending)
 :  - bar (freetime)
 $  - Segno
 &  - Coda
Tempo markers -  = BPM(8/16=s8/s16), where s8 = swing 8ths, s16 = swing 16ths



--------------------------------------------------------------------------------

** Generated using Power Tab Editor by Brad Larsen: The Official Power Tab Web Site
Tap to rate this tab
 
# A B C D E F G H I J K L M N O P Q R S T U V W X Y Z