Song name
# A B C D E F G H I J K L M N O P Q R S T U V W X Y Z

The Dogs - Forget It All tab

Song: Forget It All
Artist: The Dogs
Tuning: Standard EADGBe

Intro:

e|--2--~--~---------------------------------------|--0--~--~---------------------------------------|
B|--4--~--~---------------------------------------|--0--~--~---------------------------------------|
G|--4--~--~---------------------------------------|--1--~--~---------------------------------------|
D|--4--~--~---------------------------------------|--2--~--~---------------------------------------|
A|--2--~--~---------------------------------------|--2--~--~---------------------------------------|
E|------------------------------------------------|--0--~--~---------------------------------------|


e|--4--~--~---------------------------------------|--0--~--~---------------------------------------|
B|--4--~--~---------------------------------------|--0--~--~---------------------------------------|
G|--4--~--~---------------------------------------|--1--~--~---------------------------------------|
D|--6--~--~---------------------------------------|--2--~--~---------------------------------------|
A|--6--~--~---------------------------------------|--2--~--~---------------------------------------|
E|--4--~--~---------------------------------------|--0--~--~---------------------------------------|


Verse 1:

e|------------------------------------------------|------------------------------------------------|
B|------------------------------------------------|------------------------------------------------|
G|------------------------------------------------|------------------------------------------------|
D|------------------------------------------------|------------------------------------------------|
A|------------------------------------------------|------------------------------------------------|
E|------------------------------------------------|------------------------------------------------|
 |                                                                                                 |
 |                                                                                                 |
 |                                                                                                 |
e|------------------------------------------------|------------------------------------------------|
B|------------------------------------------------|------------------------------------------------|
G|------------------------------------------------|------------------------------------------------|
D|--9--~--9--9--x--x--x--x--9--~--9--9--x--x--x--x|--9--~--9--9--x--x--x--x--9--9--9--x-13-13-13--x|
A|--9--~--9--9--x--x--x--x--9--~--9--9--x--x--x--x|--9--~--9--9--x--x--x--x--9--9--9--x-13-13-13--x|
E|--7--~--7--7--x--x--x--x--7--~--7--7--x--x--x--x|--7--~--7--7--x--x--x--x--7--7--7--x-11-11-11--x|


e|------------------------------------------------|------------------------------------------------|
B|------------------------------------------------|------------------------------------------------|
G|------------------------------------------------|------------------------------------------------|
D|-----------------4-/6\-4------------------------|------------------------------------------------|
A|------------------------------------------------|------------------------------------------------|
E|------------------------------------------------|------------------------------------------------|
 |                                                                                                 |
 |                                                                                                 |
 |                                                                                                 |
e|------------------------------------------------|------------------------------------------------|
B|------------------------------------------------|------------------------------------------------|
G|------------------------------------------------|------------------------------------------------|
D|--6--~--6--6--x--x--x--x--6--~--6--6--x--x--x--x|--6--~--6--6--x--x--x--x--6--6--6--x--8--8--8--x|
A|--6--~--6--6--x--x--x--x--6--~--6--6--x--x--x--x|--6--~--6--6--x--x--x--x--6--6--6--x--8--8--8--x|
E|--4--~--4--4--x--x--x--x--4--~--4--4--x--x--x--x|--4--~--4--4--x--x--x--x--4--4--4--x--6--6--6--x|


e|------------------------------------------------|------------------------------------------------|
B|------------------------------------------------|------------------------------------------------|
G|------------------------------------------------|------------------------------------------------|
D|------------------------------------------------|------------------------------------------------|
A|------------------------------------------------|------------------------------------------------|
E|------------------------------------------------|------------------------------------------------|
 |                                                                                                 |
 |                                                                                                 |
 |                                                                                                 |
e|------------------------------------------------|------------------------------------------------|
B|------------------------------------------------|------------------------------------------------|
G|------------------------------------------------|------------------------------------------------|
D|--9--~--9--9--x--x--x--x--9--~--9--9--x--x--x--x|--9--~--9--9--x--x--x--x--9--9--9--x-13-13-13--x|
A|--9--~--9--9--x--x--x--x--9--~--9--9--x--x--x--x|--9--~--9--9--x--x--x--x--9--9--9--x-13-13-13--x|
E|--7--~--7--7--x--x--x--x--7--~--7--7--x--x--x--x|--7--~--7--7--x--x--x--x--7--7--7--x-11-11-11--x|


e|------------------------------------------------|------------------------------------------------|
B|------------------------------------------------|------------------------------------------------|
G|------------------------------------------------|------------------------------------------------|
D|------------------------------------------------|------------------------------------------------|
A|------------------------------------------------|------------------------------------------------|
E|------------------------------------------------|------------------------------------------------|
 |                                                                                                 |
 |                                                                                                 |
 |                                                                                                 |
e|------------------------------------------------|------------------------------------------------|
B|------------------------------------------------|------------------------------------------------|
G|------------------------------------------------|------------------------------------------------|
D|--6--~--6--6--x--x--x--x--6--~--6--6--x--x--x--x|--6--~--6--6--x--x--x--x--6--6--6--x--8--8--8--x|
A|--6--~--6--6--x--x--x--x--6--~--6--6--x--x--x--x|--6--~--6--6--x--x--x--x--6--6--6--x--8--8--8--x|
E|--4--~--4--4--x--x--x--x--4--~--4--4--x--x--x--x|--4--~--4--4--x--x--x--x--4--4--4--x--6--6--6--x|


e|------------------------------------------------|------------------------------------------------|
B|------------------------------------------------|------------------------------------------------|
G|-----------4--~--~------------------------------|-----------4--~--~------------------------------|
D|--2-h4--4-----------------2-h4--4---------------|--2-h4--4-----------------2-h4--4---------------|
A|-----------------------------------2--~--~------|-----------------------------------2--~--~------|
E|------------------------------------------------|------------------------------------------------|
 |                                                                                                 |
 |                                                                                                 |
 |                                                                                                 |
e|------------------------------------------------|------------------------------------------------|
B|------------------------------------------------|------------------------------------------------|
G|------------------------------------------------|------------------------------------------------|
D|--9--~--9--9--x--x--x--x--9--~--9--9--x--x--x--x|--9--~--9--9--x--x--x--x--9--9--9--x-13-13-13--x|
A|--9--~--9--9--x--x--x--x--9--~--9--9--x--x--x--x|--9--~--9--9--x--x--x--x--9--9--9--x-13-13-13--x|
E|--7--~--7--7--x--x--x--x--7--~--7--7--x--x--x--x|--7--~--7--7--x--x--x--x--7--7--7--x-11-11-11--x|


e|------------------------------------------------|------------------------------------------------|
B|------------------------------------------------|------------------------------------------------|
G|-----------4--~--~------------------------------|-----------4--~--~------------------------------|
D|--2-h4--4-----------------2-h4--4---------------|--2-h4--4-----------------2-h4--4---------------|
A|-----------------------------------2--~--~------|-----------------------------------2--~--~------|
E|------------------------------------------------|------------------------------------------------|
 |                                                                                                 |
 |                                                                                                 |
 |                                                                                                 |
e|------------------------------------------------|------------------------------------------------|
B|------------------------------------------------|------------------------------------------------|
G|------------------------------------------------|------------------------------------------------|
D|--6--~--6--6--x--x--x--x--6--~--6--6--x--x--x--x|--6--~--6--6--x--x--x--x--6--6--6--x--8--8--8--x|
A|--6--~--6--6--x--x--x--x--6--~--6--6--x--x--x--x|--6--~--6--6--x--x--x--x--6--6--6--x--8--8--8--x|
E|--4--~--4--4--x--x--x--x--4--~--4--4--x--x--x--x|--4--~--4--4--x--x--x--x--4--4--4--x--6--6--6--x|


Pre-Chorus:

e|------------------------------------------------|------------------------------------------------|
B|------------------------------------------------|------------------------------------------------|
G|-----9-----9-----9-----9-----9-----9-----9-----9|-----8-----8-----8-----8-----8-----8-----8-----8|
D|-----9-----9-----9-----9-----9-----9-----9-----9|-----8-----8-----8-----8-----8-----8-----8-----8|
A|-----7-----7-----7-----7-----7-----7-----7-----7|-----6-----6-----6-----6-----6-----6-----6-----6|
E|------------------------------------------------|------------------------------------------------|


Chorus:

e|--2--~--~-----------------------------------2---|--0--~--~-----------------------------------0---|
B|--4--~--~-----------------------------------4---|--0--~--~-----------------------------------0---|
G|--4--~--~-----------------------------------4---|--1--~--~-----------------------------------1---|
D|--4--~--~-----------------------------------4---|--2--~--~-----------------------------------2---|
A|--2--~--~-----------------------------------2---|--2--~--~-----------------------------------2---|
E|------------------------------------------------|--0--~--~-----------------------------------0---|


e|--4--~--~-----------------------------------4---|--0--~--~-----------------------------------0---|
B|--4--~--~-----------------------------------4---|--0--~--~-----------------------------------0---|
G|--4--~--~-----------------------------------4---|--1--~--~-----------------------------------1---|
D|--6--~--~-----------------------------------6---|--2--~--~-----------------------------------2---|
A|--6--~--~-----------------------------------6---|--2--~--~-----------------------------------2---|
E|--4--~--~-----------------------------------4---|--0--~--~-----------------------------------0---|


Verse 2:

e|------------------------------------------------|------------------------------------------------|
B|-----------------------------------------9/11\-9|-----------------------------------------9/11\-9|
G|------------------------------------------------|------------------------------------------------|
D|--9--9--9--9--9--9--9--9--9--9--9--9--9---------|--9--9--9--9--9--9--9--9--9--9--9--9--9---------|
A|------------------------------------------------|------------------------------------------------|
E|------------------------------------------------|------------------------------------------------|
 |                                                                                                 |
 |                                                                                                 |
 |                                                                                                 |
e|------------------------------------------------|------------------------------------------------|
B|------------------------------------------------|------------------------------------------------|
G|------------------------------------------------|------------------------------------------------|
D|--9--~--9--9--x--x--x--x--9--~--9--9--x--x--x--x|--9--~--9--9--x--x--x--x--9--9--9--x-13-13-13--x|
A|--9--~--9--9--x--x--x--x--9--~--9--9--x--x--x--x|--9--~--9--9--x--x--x--x--9--9--9--x-13-13-13--x|
E|--7--~--7--7--x--x--x--x--7--~--7--7--x--x--x--x|--7--~--7--7--x--x--x--x--7--7--7--x-11-11-11--x|


e|------------------------------------------------|------------------------------------------------|
B|-----------------------------------------9/11\-9|-----------------------------------------9/11\-9|
G|------------------------------------------------|------------------------------------------------|
D|--9--9--9--9--9--9--9--9--9--9--9--9--9---------|--9--9--9--9--9--9--9--9--9--9--9--9--9---------|
A|------------------------------------------------|------------------------------------------------|
E|------------------------------------------------|------------------------------------------------|
 |                                                                                                 |
 |                                                                                                 |
 |                                                                                                 |
e|------------------------------------------------|------------------------------------------------|
B|------------------------------------------------|------------------------------------------------|
G|------------------------------------------------|------------------------------------------------|
D|--6--~--6--6--x--x--x--x--6--~--6--6--x--x--x--x|--6--~--6--6--x--x--x--x--6--6--6--x--8--8--8--x|
A|--6--~--6--6--x--x--x--x--6--~--6--6--x--x--x--x|--6--~--6--6--x--x--x--x--6--6--6--x--8--8--8--x|
E|--4--~--4--4--x--x--x--x--4--~--4--4--x--x--x--x|--4--~--4--4--x--x--x--x--4--4--4--x--6--6--6--x|


e|------------------------------------------------|------------------------------------------------|
B|------------------------------------------------|------------------------------------------------|
G|------------------------------------------------|------------------------------------------------|
D|------------------------------------------------|------------------------------------------------|
A|------------------------------------------------|------------------------------------------------|
E|------------------------------------------------|------------------------------------------------|
 |                                                                                                 |
 |                                                                                                 |
 |                                                                                                 |
e|------------------------------------------------|------------------------------------------------|
B|------------------------------------------------|------------------------------------------------|
G|------------------------------------------------|------------------------------------------------|
D|--9--~--9--9--x--x--x--x--9--~--9--9--x--x--x--x|--9--~--9--9--x--x--x--x--9--9--9--x-13-13-13--x|
A|--9--~--9--9--x--x--x--x--9--~--9--9--x--x--x--x|--9--~--9--9--x--x--x--x--9--9--9--x-13-13-13--x|
E|--7--~--7--7--x--x--x--x--7--~--7--7--x--x--x--x|--7--~--7--7--x--x--x--x--7--7--7--x-11-11-11--x|


e|------------------------------------------------|------------------------------------------------|
B|------------------------------------------------|------------------------------------------------|
G|------------------------------------------------|------------------------------------------------|
D|------------------------------------------------|------------------------------------------------|
A|------------------------------------------------|------------------------------------------------|
E|------------------------------------------------|------------------------------------------------|
 |                                                                                                 |
 |                                                                                                 |
 |                                                                                                 |
e|------------------------------------------------|------------------------------------------------|
B|------------------------------------------------|------------------------------------------------|
G|------------------------------------------------|------------------------------------------------|
D|--6--~--6--6--x--x--x--x--6--~--6--6--x--x--x--x|--6--~--6--6--x--x--x--x--6--6--6--x--8--8--8--x|
A|--6--~--6--6--x--x--x--x--6--~--6--6--x--x--x--x|--6--~--6--6--x--x--x--x--6--6--6--x--8--8--8--x|
E|--4--~--4--4--x--x--x--x--4--~--4--4--x--x--x--x|--4--~--4--4--x--x--x--x--4--4--4--x--6--6--6--x|


e|------------------------------------------------|------------------------------------------------|
B|------------------------------------------------|------------------------------------------------|
G|-----------4--~--~------------------------------|-----------4--~--~------------------------------|
D|--2-h4--4-----------------2-h4--4---------------|--2-h4--4-----------------2-h4--4---------------|
A|-----------------------------------2--~--~------|-----------------------------------2--~--~------|
E|------------------------------------------------|------------------------------------------------|
 |                                                                                                 |
 |                                                                                                 |
 |                                                                                                 |
e|------------------------------------------------|------------------------------------------------|
B|------------------------------------------------|------------------------------------------------|
G|------------------------------------------------|------------------------------------------------|
D|--9--~--9--9--x--x--x--x--9--~--9--9--x--x--x--x|--9--~--9--9--x--x--x--x--9--9--9--x-13-13-13--x|
A|--9--~--9--9--x--x--x--x--9--~--9--9--x--x--x--x|--9--~--9--9--x--x--x--x--9--9--9--x-13-13-13--x|
E|--7--~--7--7--x--x--x--x--7--~--7--7--x--x--x--x|--7--~--7--7--x--x--x--x--7--7--7--x-11-11-11--x|


e|------------------------------------------------|------------------------------------------------|
B|------------------------------------------------|------------------------------------------------|
G|-----------4--~--~------------------------------|-----------4--~--~------------------------------|
D|--2-h4--4-----------------2-h4--4---------------|--2-h4--4-----------------2-h4--4---------------|
A|-----------------------------------2--~--~------|-----------------------------------2--~--~------|
E|------------------------------------------------|------------------------------------------------|
 |                                                                                                 |
 |                                                                                                 |
 |                                                                                                 |
e|------------------------------------------------|------------------------------------------------|
B|------------------------------------------------|------------------------------------------------|
G|------------------------------------------------|------------------------------------------------|
D|--6--~--6--6--x--x--x--x--6--~--6--6--x--x--x--x|--6--~--6--6--x--x--x--x--6--6--6--x--8--8--8--x|
A|--6--~--6--6--x--x--x--x--6--~--6--6--x--x--x--x|--6--~--6--6--x--x--x--x--6--6--6--x--8--8--8--x|
E|--4--~--4--4--x--x--x--x--4--~--4--4--x--x--x--x|--4--~--4--4--x--x--x--x--4--4--4--x--6--6--6--x|


Pre Chorus:

e|------------------------------------------------|------------------------------------------------|
B|------------------------------------------------|------------------------------------------------|
G|-----9-----9-----9-----9-----9-----9-----9-----9|-----8-----8-----8-----8-----8-----8-----8-----8|
D|-----9-----9-----9-----9-----9-----9-----9-----9|-----8-----8-----8-----8-----8-----8-----8-----8|
A|-----7-----7-----7-----7-----7-----7-----7-----7|-----6-----6-----6-----6-----6-----6-----6-----6|
E|------------------------------------------------|------------------------------------------------|


Chorus 2:

e|--2--~--~-----------------------------------2---|--0--~--~-----------------------------------0---|
B|--4--~--~-----------------------------------4---|--0--~--~-----------------------------------0---|
G|--4--~--~-----------------------------------4---|--1--~--~-----------------------------------1---|
D|--4--~--~-----------------------------------4---|--2--~--~-----------------------------------2---|
A|--2--~--~-----------------------------------2---|--2--~--~-----------------------------------2---|
E|------------------------------------------------|--0--~--~-----------------------------------0---|


e|--4--~--~-----------------------------------4---|--0--~--~-----------------------------------0---|
B|--4--~--~-----------------------------------4---|--0--~--~-----------------------------------0---|
G|--4--~--~-----------------------------------4---|--1--~--~-----------------------------------1---|
D|--6--~--~-----------------------------------6---|--2--~--~-----------------------------------2---|
A|--6--~--~-----------------------------------6---|--2--~--~-----------------------------------2---|
E|--4--~--~-----------------------------------4---|--0--~--~-----------------------------------0---|


e|--2--~--~-----------------------------------2---|--0--~--~-----------------------------------0---|
B|--4--~--~-----------------------------------4---|--0--~--~-----------------------------------0---|
G|--4--~--~-----------------------------------4---|--1--~--~-----------------------------------1---|
D|--4--~--~-----------------------------------4---|--2--~--~-----------------------------------2---|
A|--2--~--~-----------------------------------2---|--2--~--~-----------------------------------2---|
E|------------------------------------------------|--0--~--~-----------------------------------0---|


e|--4--~--~-----------------------------------4---|--0--~--~-----------------------------------0---|
B|--4--~--~-----------------------------------4---|--0--~--~-----------------------------------0---|
G|--4--~--~-----------------------------------4---|--1--~--~-----------------------------------1---|
D|--6--~--~-----------------------------------6---|--2--~--~-----------------------------------2---|
A|--6--~--~-----------------------------------6---|--2--~--~-----------------------------------2---|
E|--4--~--~-----------------------------------4---|--0--~--~-----------------------------------0---|


Bridge:

e|------------------------------------------------|------------------------------------------------|
B|------------------------------------------------|------------------------------------------------|
G|-----------4--~--~------------------------------|-----------4--~--~------------------------------|
D|--2-h4--4-----------------2-h4--4---------------|--2-h4--4-----------------2-h4--4---------------|
A|-----------------------------------2--~--~------|-----------------------------------2--~--~------|
E|------------------------------------------------|------------------------------------------------|


e|------------------------------------------------|------------------------------------------------|
B|------------------------------------------------|------------------------------------------------|
G|-----------4--~--~------------------------------|-----------4--~--~------------------------------|
D|--2-h4--4-----------------2-h4--4---------------|--2-h4--4-----------------2-h4--4---------------|
A|-----------------------------------2--~--~------|-----------------------------------2--~--~------|
E|------------------------------------------------|------------------------------------------------|


e|------------------------------------------------|------------------------------------------------|
B|------------------------------------------------|------------------------------------------------|
G|-----------4--~--~------------------------------|-----------4--~--~------------------------------|
D|--2-h4--4-----------------2-h4--4---------------|--2-h4--4-----------------2-h4--4---------------|
A|-----------------------------------2--~--~------|-----------------------------------2--~--~------|
E|------------------------------------------------|------------------------------------------------|


e|------------------------------------------------|------------------------------------------------|
B|------------------------------------------------|------------------------------------------------|
G|-----------4--~--~------------------------------|-----------4--~--~------------------------------|
D|--2-h4--4-----------------2-h4--4---------------|--2-h4--4-----------------2-h4--4---------------|
A|-----------------------------------2--~--~------|-----------------------------------2--~--~------|
E|------------------------------------------------|------------------------------------------------|


e|-11--^^^^^^^^^^^^^^^^^^^--6--^^^^^^^--7--^^^^^^^|-11--^^^^^^^^^^^^^^^^^^^--6--^^^^^^^--7--^^^^^^^|
B|--x-----------------------x-----------x---------|--x-----------------------x-----------x---------|
G|--8--^^^^^^^^^^^^^^^^^^^--3--^^^^^^^--4--^^^^^^^|--8--^^^^^^^^^^^^^^^^^^^--3--^^^^^^^--4--^^^^^^^|
D|------------------------------------------------|------------------------------------------------|
A|------------------------------------------------|------------------------------------------------|
E|------------------------------------------------|------------------------------------------------|


e|-11--^^^^^^^^^^^^^^^^^^^--6--^^^^^^^--7--^^^^^^^|-11--^^^^^^^^^^^^^^^^^^^--6--^^^^^^^--7--^^^^^^^|
B|--x-----------------------x-----------x---------|--x-----------------------x-----------x---------|
G|--8--^^^^^^^^^^^^^^^^^^^--3--^^^^^^^--4--^^^^^^^|--8--^^^^^^^^^^^^^^^^^^^--3--^^^^^^^--4--^^^^^^^|
D|------------------------------------------------|------------------------------------------------|
A|------------------------------------------------|------------------------------------------------|
E|------------------------------------------------|------------------------------------------------|


Chorus 3:

e|--2--~--~-----------------------------------2---|--0--~--~-----------------------------------0---|
B|--4--~--~-----------------------------------4---|--0--~--~-----------------------------------0---|
G|--4--~--~-----------------------------------4---|--1--~--~-----------------------------------1---|
D|--4--~--~-----------------------------------4---|--2--~--~-----------------------------------2---|
A|--2--~--~-----------------------------------2---|--2--~--~-----------------------------------2---|
E|------------------------------------------------|--0--~--~-----------------------------------0---|


e|--4--~--~-----------------------------------4---|--0--~--~-----------------------------------0---|
B|--4--~--~-----------------------------------4---|--0--~--~-----------------------------------0---|
G|--4--~--~-----------------------------------4---|--1--~--~-----------------------------------1---|
D|--6--~--~-----------------------------------6---|--2--~--~-----------------------------------2---|
A|--6--~--~-----------------------------------6---|--2--~--~-----------------------------------2---|
E|--4--~--~-----------------------------------4---|--0--~--~-----------------------------------0---|


e|--2--~--~-----------------------------------2---|--0--~--~-----------------------------------0---|
B|--4--~--~-----------------------------------4---|--0--~--~-----------------------------------0---|
G|--4--~--~-----------------------------------4---|--1--~--~-----------------------------------1---|
D|--4--~--~-----------------------------------4---|--2--~--~-----------------------------------2---|
A|--2--~--~-----------------------------------2---|--2--~--~-----------------------------------2---|
E|------------------------------------------------|--0--~--~-----------------------------------0---|


e|--4--~--~-----------------------------------4---|--0--~--~-----------------------------------0---|
B|--4--~--~-----------------------------------4---|--0--~--~-----------------------------------0---|
G|--4--~--~-----------------------------------4---|--1--~--~-----------------------------------1---|
D|--6--~--~-----------------------------------6---|--2--~--~-----------------------------------2---|
A|--6--~--~-----------------------------------6---|--2--~--~-----------------------------------2---|
E|--4--~--~-----------------------------------4---|--0--~--~-----------------------------------0---|


End:

e|--------------------------6--^^^^^^^--7--^^^^^^^|--------------------------6--^^^^^^^--7--^--9--^|
B|--------------------------x-----------x---------|--------------------------x-----------x-----x---|
G|--8--^^^^^^^^^^^^^^^^^^^--3--^^^^^^^--4--^^^^^^^|--8--^^^^^^^^^^^^^^^^^^^--3--^^^^^^^--4--^--6--^|
D|--x---------------------------------------------|--x---------------------------------------------|
A|--6--^^^^^^^^^^^^^^^^^^^------------------------|--6--^^^^^^^^^^^^^^^^^^^------------------------|
E|------------------------------------------------|------------------------------------------------|


e|--------------------------6--^^^^^^^--7--^^^^^^^|--------------------------6--^^^^^^^--7--^--9--^|
B|--------------------------x-----------x---------|--------------------------x-----------x-----x---|
G|--8--^^^^^^^^^^^^^^^^^^^--3--^^^^^^^--4--^^^^^^^|--8--^^^^^^^^^^^^^^^^^^^--3--^^^^^^^--4--^--6--^|
D|--x---------------------------------------------|--x---------------------------------------------|
A|--6--^^^^^^^^^^^^^^^^^^^------------------------|--6--^^^^^^^^^^^^^^^^^^^------------------------|
E|------------------------------------------------|------------------------------------------------|


e|-14--^^^^^^^^^^^^^^^^^^^^^^^^^^^^^^^^^^^^^^^^^^^|^^^^^^^^^^^^^^^^^^^^^^^^^^^^^^^^^^^^^^^^^^^^^^^^|
B|--x---------------------------------------------|------------------------------------------------|
G|-11--^^^^^^^^^^^^^^^^^^^^^^^^^^^^^^^^^^^^^^^^^^^|^^^^^^^^^^^^^^^^^^^^^^^^^^^^^^^^^^^^^^^^^^^^^^^^|
D|------------------------------------------------|------------------------------------------------|
A|------------------------------------------------|------------------------------------------------|
E|------------------------------------------------|------------------------------------------------|

Tap to rate this tab
 
# A B C D E F G H I J K L M N O P Q R S T U V W X Y Z