Song name
# A B C D E F G H I J K L M N O P Q R S T U V W X Y Z

The Dogs - Tuned To A Different Station tab

Song: Tuned To A Different Station
Artist: The Dogs
Tuning: Standard EADGBe

I have already written a tab for the chords of this song but this is mainly to show the 
parts.  I will write the chords above each bar anyway so you can see both guitar parts.  
has to be one of my favourite songs of all time so I hope you enjoy it.


Intro:

F x 32


Verse:

F x 32
C x 32
F x 32 palm muted
C x 32


Pre-Chorus:

   F                                                Am
e|-12----------------------12---------------------|-12----------------------12---------------------|
B|-------------10----------------------10---------|-------------10----------------------10---------|
G|------------------------------------------------|------------------------------------------------|
D|------------------------------------------------|------------------------------------------------|
A|-------12----------12----------12----------12---|-------12----------12----------12----------12---|
E|------------------------------------------------|------------------------------------------------|

   D
e|-12----------------------12---------------------|-12----------12----------12---------------------|
B|-------------10----------------------10---------|------------------------------------------------|
G|------------------------------------------------|------------------------------------------------|
D|------------------------------------------------|------------------------------------------------|
A|-------12----------12----------12----------12---|-------12----------12----------12-----~-----~---|
E|------------------------------------------------|------------------------------------------------|


Chorus:

   F                                                Am
e|------------------------------------------------|------------------------------------------------|
B|------------------------------------------------|------------------------------------------------|
G|------------------------------------------------|------------------------------------------------|
D|-10----10----10-10----10----10-10----10-10-10---|-10----10----10-10----10----10-10----10-10-10---|
A|------------------------------------------------|------------------------------------------------|
E|------------------------------------------------|------------------------------------------------|

   G                                                Am
e|------------------------------------------------|------------------------------------------------|
B|------------------------------------------------|------------------------------------------------|
G|------------------------------------------------|------------------------------------------------|
D|-10----10----10-10----10----10-10----10-10-10---|-10----10----10-10----10----10-10----10-10-10---|
A|------------------------------------------------|------------------------------------------------|
E|------------------------------------------------|------------------------------------------------|

Then

F x 16
Am x 16
D x 32


Repeat Verse, Pre-Chorus and Chorus, then

Solo:

   C
e|------------------------------------------------|------------------------------------------------|
B|------------------------------------------------|------------------------------------------------|
G|------------------------------------------------|--------------------7--9--~--~--~-12--9--~--~--~|
D|------------------------------------------------|------------------------------------------------|
A|------------------------------------------------|------------------------------------------------|
E|------------------------------------------------|------------------------------------------------|

   F                                                E
e|-------------------------10^(12)-(12)-(12)^10---|--7-----7-----7--------7-----7--------7---------|
B|------------------------------------------------|----------------10----------------10------------|
G|--------------7--9------------------------------|-----------------------------------------9-p7---|
D|--------7--9------------------------------------|-----------------------------------------------9|
A|------------------------------------------------|------------------------------------------------|
E|------------------------------------------------|------------------------------------------------|

   F                                                E
e|--------------------------7-----7-----7--7------|-------10h12-10h12-------10h12-10h12-14-12p10---|
B|-------------------------------------------10---|-10^(12)-----------10^(12)--------------------12|
G|--------------7--9------------------------------|------------------------------------------------|
D|--------7--9------------------------------------|------------------------------------------------|
A|------------------------------------------------|------------------------------------------------|
E|------------------------------------------------|------------------------------------------------|

   F                                                E
e|------------------------------------------------|------------------------------------------------|
B|-------13----13--~--~-------13----13-12p10h12--~|-------12----12--~--~-----------------7^(8)^7---|
G|-10-10----10----------10-10---------------------|--9--~-----9--------------------7--9-----------9|
D|------------------------------------------------|-----------------------------9------------------|
A|------------------------------------------------|-----------------------7--~---------------------|
E|------------------------------------------------|------------------------------------------------|

   F                                                E
e|------------------------------------------------|------------------------------------------------|
B|--------------------------------------7---------|-------10--8--10--8--10/12----------------------|
G|--------------9-----7--------------7-----9------|----------------------------9^-bend-slowly------|
D|--------7--9--------------------9-----------9--~|------------------------------------------------|
A|--7--~--------------------7--~------------------|--7--~------------------------------------------|
E|------------------------------------------------|------------------------------------------------|


Pre-Chorus:

   F                                                Am
e|------------------------------------------------|------------------------------------------------|
B|------------------------------------------------|------------------------------------------------|
G|------------------------------------------------|------------------------------------------------|
D|-10----10----10-10----10----10-10----10-10-10---|-10----10----10-10----10----10-10----10-10-10---|
A|------------------------------------------------|------------------------------------------------|
E|------------------------------------------------|------------------------------------------------|

   D
e|------------------------------------------------|------------------------------------------------|
B|------------------------------------------------|------------------------------------------------|
G|------------------------------------------------|------------------------------------------------|
D|-10----10----10-10----10----10-10----10-10-10---|------------------------------------------------|
A|------------------------------------------------|-12-12-12-12-12-12-12-12-12-12-12-12-12-12-12---|
E|------------------------------------------------|------------------------------------------------|


Chorus:

F x 16
Am x 16
G x 16
Am x 16


   F                                                Am
e|-12----------------------12---------------------|-12----------------------12---------------------|
B|-------------10----------------------10---------|-------------10----------------------10---------|
G|------------------------------------------------|------------------------------------------------|
D|------------------------------------------------|------------------------------------------------|
A|-------12----------12----------12----------12---|-------12----------12----------12----------12---|
E|------------------------------------------------|------------------------------------------------|

   D                                                Am
e|-12----------------------12---------------------|-12----------12----------12----------12---------|
B|-------------10----------------------10---------|------------------------------------------------|
G|------------------------------------------------|------------------------------------------------|
D|------------------------------------------------|------------------------------------------------|
A|-------12----------12----------12----------12---|-------12----------12----------12----------12---|
E|------------------------------------------------|------------------------------------------------|

   D                                                Am
e|-12----------------------12---------------------|-12----------12----------12----------12---------|
B|-------------10----------------------10---------|------------------------------------------------|
G|------------------------------------------------|------------------------------------------------|
D|------------------------------------------------|------------------------------------------------|
A|-------12----------12----------12----------12---|-------12----------12----------12----------12---|
E|------------------------------------------------|------------------------------------------------|

   D
e|-12----------------------12---------------------|
B|-------------10----------------------10---------|
G|------------------------------------------------|
D|------------------------------------------------|
A|-------12----------12----------12----------12---|
E|------------------------------------------------|


   Am                                               D
e|------------------------------------------------|------------------------------------------------|
B|------------------------------------------------|------------------------------------------------|
G|------------------------------------------------|------------------------------------------------|
D|--9h10-10-10-10-10-10-10/14-14-14-14-14-12-12-12|--9h10-10-10-10-10-10-10-10-10-10-10-10--9--9--9|
A|------------------------------------------------|------------------------------------------------|
E|------------------------------------------------|------------------------------------------------|

   Am                                               D
e|------------------------------------------------|----12-12----12-12----12-12----12-12----12-12-12|
B|------------------------------------------------|----10-10----10-10----10-10----10-10----10-10-10|
G|------------------------------------------------|------------------------------------------------|
D|--9h10-10-10-10-10-10-10/14-14-14-14-14-12-12-12|-12^(14)--12^(14)--12^(14)--12^(14)--12^(14)----|
A|------------------------------------------------|------------------------------------------------|
E|------------------------------------------------|------------------------------------------------|

   Am                                               D
e|------------------------------------------------|------------------------------------------------|
B|-10^(12)----(12)-(12)^10--8^(10)----(10)-(10)^-8|-10^(12)----(12)-(12)^10-12^(13)----(13)-(13)^12|
G|------------------------------------------------|------------------------------------------------|
D|------------------------------------------------|------------------------------------------------|
A|------------------------------------------------|------------------------------------------------|
E|------------------------------------------------|------------------------------------------------|

   Am                                               D
e|------------------------------------------------|------------------------------------------------|
B|-10^(12)----(12)-(12)^10--8^(10)----(10)-(10)^-8|-10^(12)--12^(13)--13^(15)--15^(17)--15^(17)----|
G|------------------------------------------------|------------------------------------------------|
D|------------------------------------------------|------------------------------------------------|
A|------------------------------------------------|------------------------------------------------|
E|------------------------------------------------|------------------------------------------------|

   Am                                               D
e|-17--------~--------~--------~--------~--------~|------------------------------------------------|
B|-20^(22)---~--------~--------~--------~--------~|------------------------------------------------|
G|------------------------------------------------|--------------------7--------9--------9---------|
D|------------------------------------------------|--9-------10------------------------------------|
A|------------------------------------------------|------------------------------------------------|
E|------------------------------------------------|------------------------------------------------|

   Am                                               D
e|-12----------------------10---------------------|--9--------------17------17------17------17-----|
B|-15^(17)-----------------13^(15)----------------|-12^(14)---------20^(22)-20^(22)-20^(22)-20^(22)|
G|------------------------------------------------|------------------------------------------------|
D|------------------------------------------------|------------------------------------------------|
A|------------------------------------------------|------------------------------------------------|
E|------------------------------------------------|------------------------------------------------|

   Am                                               D
e|--7--------~--------~--------~--------~--------~|------------------------------------------------|
B|-10^(12)---~--------~--------~--------~--------~|------------------------------------------------|
G|------------------------------------------------|------------------------------------------------|
D|------------------------------------------------|------------------------------------------------|
A|------------------------------------------------|------------------------------------------------|
E|------------------------------------------------|------------------------------------------------|


Am
D
Am
D
Am
Tap to rate this tab
 
# A B C D E F G H I J K L M N O P Q R S T U V W X Y Z