Guitaretab - guitar tabs
Song name
# A B C D E F G H I J K L M N O P Q R S T U V W X Y Z

The Dogs - London Bridge tab

-------------------------------------------------------------------------------
			     London Bridge - The Dogs
-------------------------------------------------------------------------------
Tabbed by:Chowmonkey

[ Tab from: http://www.guitaretab.com/t/the-dogs/84325.html ]
Tuning:standard
Intro
e|-10-9-10---------------10-9-10---------------------------------------------|
B|---------10-8-7----------------10-8-7--------------------------------------|
G|----------------9-7-x16-----------------9-7-7-7-7-7-7-7--------------------|
D|---------------------------------------------------------------------------|
A|---------------------------------------------------------------------------|
E|---------------------------------------------------------------------------|
Pickslides
1:13
He plays different variations of this throughout the song..
e|----12---10--------10-----12----10-----------------------------------------|
B|-14---14-----14-14-----14----14--------------------------------------------|
G|---------------------------------------------------------------------------|
D|---------------------------------------------------------------------------|
A|---------------------------------------------------------------------------|
E|---------------------------------------------------------------------------|
1:31 Verse
e|---------------------------------------------------------------------------|
B|---------------------------------------------------------------------------|
G|---------------------------------------------------------------------------|
D|---7-5-7-9-7-5-X7----------------------------------------------------------|
A|-5-------------------------------------------------------------------------|
E|---------------------------------------------------------------------------|
1:47 Chorus
e|---------------------------------------------------------------------------|
B|---------------------------------------------------------------------------|
G|-7-7-7-7-7-7-7-7--12-12-12-12-12-12-12-12--11-11-11-11-11-11-11-11---------|
D|-7-7-7-7-7-7-7-7--12-12-12-12-12-12-12-12--11-11-11-11-11-11-11-11---------|
A|-5-5-5-5-5-5-5-5--10-10-10-10-10-10-10-10--9--9--9--9--9--9--9--9----------|
E|---------------------------------------------------------------------------|
this is the rest of the chorus
e|---------------------------------------------------------------------------|
B|---------------------------------------------------------------------------|
G|-12-12-12-11-11-11---7-7-7-7-7-7-7-6-6-6-6-7-7-7-7-4-2-let ring------------|
D|-12-12-12-11-11-11-X2------------------------------------------------------|
A|-10-10-10-9--9--9----------------------------------------------------------|
E|---------------------------------------------------------------------------|
2:09 Verse
2:35 Chorus
2:58
e|---------------------------------------------------------------------------|
B|---------------------------------------------------------------------------|
G|---------------2-2-2-2-4-4-4-4-6-6-6-6-7-7-7-7-X2-9-9-9-9-7-7-7-7-X4-------|
D|-5-5-5-5-5-5-5-------------------------------------------------------------|
A|-5-5-5-5-5-5-5-------------------------------------------------------------|
E|-3-3-3-3-3-3-3-------------------------------------------------------------|

e|---------------------------------------------------------------------------|
B|---------------------------------------------------------------------------|
G|-2-2-2-2-4-4-4-4-6-6-6-6-7-7-7-7X2-7-6-4-----------------------------------|
D|-----------------------------------------7-5-4-----------------------------|
A|-----------------------------------------------7-5-x4----------------------|
E|---------------------------------------------------------------------------|

Theres two guitars in the song but im not doing both just da main part... so dont tune 
bout dat thx..
Related for London Bridge tab
Advertisement will be closed in 10 seconds