Song name
# A B C D E F G H I J K L M N O P Q R S T U V W X Y Z

The Donkeys - Lower The Heavens tab

-------------------------------------------------------------------------------
                             Lower The Heavens - The Donkeys
-------------------------------------------------------------------------------
Tabbed by: guitar zeer0
E-mail: PM me if you feel the need

Tuning: Standard 

The notes begin about a minute into the song. I tried to space it out in 

accordance with the rhythm. The spacing isn't exact but it'll give you a general 

idea. Transcribed by ear. This is my first tab, enjoy!
 
[Chorus] (x2)
e|---------------------------------------------------------------------------|
B|------1---1---1h3-------1-3-4b3-1-------1---1---1h3-------1-3-4b3-1--------|
G|--0h2---2---2-------0h2-------------0h2---2---2-------0h2------------------|
D|---------------------------------------------------------------------------|
A|---------------------------------------------------------------------------|
E|---------------------------------------------------------------------------|

e|----------0-----------------0-----------------0-------0-----0-----0--------|
B|------1-------1---------1-------1---------1-------1-----1-----1-----1------|
G|--0h2---2---2---2---0h2---2---2---2---0h2---2---2---2-----2-----2----------|
D|---------------------------------------------------------------------------|
A|---------------------------------------------------------------------------|
E|---------------------------------------------------------------------------|

[Bridge]
e|--3-----3-----3-----3-----3-----3-0-----0-----0-----0-----0-----0----------|
B|----1-----1-----1-----1-----2-------1-----1-----1-----1-----1--------------|
G|------2-----2-----2-----2-----1-------2-----2-----2-----2-----2------------|
D|---------------------------------------------------------------------------|
A|---------------------------------------------------------------------------|
E|---------------------------------------------------------------------------|

e|--1-----1-----1-----1-----1-0-----0-----0-----3-1-0------------------------|
B|----1-----1-----1-----1-------1-----1-----1---------3-1-0-1--0-1-0-2/3-----|
G|------2-----2-----2-----2-------2-----2-----2------------------------------|
D|---------------------------------------------------------------------------|
A|---------------------------------------------------------------------------|
E|---------------------------------------------------------------------------|

e|----------------------------------------3-1-0------------------------------|
B|--0-1--0-1-0-2/3---0-1--0-1-0-2/3--0-1--------3-1-0-1--0-1-0-2/3-----------|
G|---------------------------------------------------------------------------|
D|---------------------------------------------------------------------------|
A|---------------------------------------------------------------------------|
E|---------------------------------------------------------------------------|

e|---------------------------------------------------------------------------|
B|--0-1--0-1-0-2/3--0-1--0-1-0-2/3--1-0-1-0----------------------------------|
G|------------------------------------------2-----0--------------------------|
D|--------------------------------------------0h2---2------------------------|
A|---------------------------------------------------------------------------|
E|---------------------------------------------------------------------------|

[Repeat Chorus]

[Solo]
e|---------------------------------------------------------------------------|
B|---------------------------------------------------------------------------|
G|--7b---9-9\7--7-7--7-7-----------------------------------------------------|
D|-----------------------10-9-7----------------------------------------------|
A|---------------------------------------------------------------------------|
E|--------------------------------10-10/12--12-12---8-8-8-8/10-10-10/12------|

e|---------------------------------------------------------------------------|
B|---------------------------------------------------------------------------|
G|-------------------------------8b-8b--8b-8b-8b7-5----8b-8b--8b-8b-8b7-5----|
D|---------------------------------------------------------------------------|
A|---------------------------------------------------------------------------|
E|--12-12\10--10-10/12-------------------------------------------------------|

e|------------------------------------------------------17-------17-19-20----|
B|------------------------------------------------13h17----13h17-------------|
G|--8b---9-12-9----10h9-7-7--7-----------------------------------------------|
D|--------------12-------------10-9-5/7--7-7/9-------------------------------|
A|---------------------------------------------------------------------------|
E|---------------------------------------------------------------------------|

e|--------12----15p12----15p12----12-----12----12----12----12--13h12---------|
B|--11/12----12-------12-------12-----13----13----13----13-----------13------|
G|---------------------------------------------------------------------------|
D|---------------------------------------------------------------------------|
A|---------------------------------------------------------------------------|
E|---------------------------------------------------------------------------|

e|--15h12----13------------------------------------------------17------------|
B|--------13-----13-15--13-15--13-15--13-15--13-15--13---13h17---------------|
G|---------------------------------------------------------------------------|
D|---------------------------------------------------------------------------|
A|---------------------------------------------------------------------------|
E|---------------------------------------------------------------------------|

e|--------17-19-20--------12----15p12----12-----12-------12----12----12----12|
B|--13h17-----------11/12----12-------12-----12----12-13----13----13----13---|
G|---------------------------------------------------------------------------|
D|---------------------------------------------------------------------------|
A|---------------------------------------------------------------------------|
E|---------------------------------------------------------------------------|

e|--13h12----15h12----13h12--------------------------------------------------|
B|--------13-------13-------13-15--13-15--13-15--13-15--13-15--13------------|
G|---------------------------------------------------------------------------|
D|---------------------------------------------------------------------------|
A|---------------------------------------------------------------------------|
E|---------------------------------------------------------------------------|

e|-----12-----12----13h12----15-----13h12------------------------------------|
B|--13-----13----13-------13-----13-------13-15--13-15--13-15--13-15--13-----|
G|---------------------------------------------------------------------------|
D|---------------------------------------------------------------------------|
A|---------------------------------------------------------------------------|
E|---------------------------------------------------------------------------|

e|---------------------------------------------------------------------------|
B|--15\13---------------12---------------------12----------------------------|
G|--------12---12-14-12----14-12-14--12-14-12-----14-12-14--12-14-12---------|
D|---------------------------------------------------------------------------|
A|---------------------------------------------------------------------------|
E|---------------------------------------------------------------------------|

e|---------------------------------------------------------------------------|
B|--11/12-12-12-12-12-12-----------------------------------------------------|
G|---------------------------------------------------------------------------|
D|---------------------------------------------------------------------------|
A|---------------------------------------------------------------------------|
E|---------------------------------------------------------------------------|

[Repeat Chorus]

[Outro]
e|-------------------------------------------------------------3-0-----------|
B|------1---1---1h3--4b--4b-4b-4b-2/3------1---1---1h3--4b--4b-----2/3-------|
G|--0h2---2---2------------------------0h2---2---2---------------------------|
D|---------------------------------------------------------------------------|
A|---------------------------------------------------------------------------|
E|---------------------------------------------------------------------------|

e|----------0-----------------0-----------------0-------3-----3--------------|
B|------1-------1---------1-------1---------1-------1-----1-----1------------|
G|--0h2---2---2---2---0h2---2---2---2---0h2---2---2---2-----2-----2----------|
D|---------------------------------------------------------------------------|
A|---------------------------------------------------------------------------|
E|---------------------------------------------------------------------------|

e|--3-3-3--3--3-3--3-3-1-0-1-0-1-0---0-0-0--0---0-0--------------------------|
B|----------------------------------------------------0/1--1--1-1/3-3-3\1----|
G|---------------------------------------------------------------------------|
D|---------------------------------------------------------------------------|
A|---------------------------------------------------------------------------|
E|---------------------------------------------------------------------------|

e|---------------------------------------------------------------------------|
B|--1-1p0-------------------------1---1---1h3-------1-3-4b3-1----------------|
G|---------4-4-4-4-2--2-2p0---0h2---2---2-------0h2--------------------------|
D|---------------------------------------------------------------------------|
A|---------------------------------------------------------------------------|
E|---------------------------------------------------------------------------|

e|--------------------------------------------0-----------------0------------|
B|------1---1---1h3-------1-3-4b3-1-------1-------1---------1-------1--------|
G|--0h2---2---2-------0h2-------------0h2---2---2---2---0h2---2---2---2------|
D|---------------------------------------------------------------------------|
A|---------------------------------------------------------------------------|
E|---------------------------------------------------------------------------|

e|----------0-----3-----3-----3---3-----3-3-1-0-1p0--------------------------|
B|------1-------1---1-----1-----1--------------------------1--1-1h3----------|
G|--0h2---2---2-------2-----2------------------------------------------------|
D|---------------------------------------------------------------------------|
A|---------------------------------------------------------------------------|
E|---------------------------------------------------------------------------|

e|---------------------------------------------------------------------------|
B|---3-3--0-1-0-1-1-0--------------------------------------------------------|
G|---------------------------------------------------------------------------|
D|---------------------------------------------------------------------------|
A|---------------------------------------------------------------------------|
E|---------------------------------------------------------------------------|

Ends on a Dm chord.

************************************
| /   slide up
| \   slide down
| h   hammer-on
| p   pull-off
| b   Bend
************************************
Tap to rate this tab
# A B C D E F G H I J K L M N O P Q R S T U V W X Y Z