Song name
# A B C D E F G H I J K L M N O P Q R S T U V W X Y Z

The Dopamines - Kitchen Cleaners tab

Another fun little pop punk song.

  Verse                          Chorus (repeat twice)
E|-------------------------------|--------------------|-----|
B|-------------------------------|--------------------|-----|
G|-6---------------6-------------|---------6-6--------|-----|
D|-6---8---6---6---6---8---6---6-|-3---4---6-6-8-6-4--|-6---|
A|-4---8---6---6---4---8---6---6-|-3---4---4-3-8-6-4--|-6---|
E|-----6---4---4-------6---4---4-|-1---2-------6-4-2--|-4---|

"trading for dependence at both ends"
E|----------------------------------------------------------|
B|----------------------------------------------------------|
G|-6------------6-------------6-----------------------------|
D|-6-6-8--7-----6-6-8---7-----6-6-8---7---------------------|
A|-4-6-8--7-----4-6-8---7-----4-6-8---7---------------------|
E|---4-6--5-------4-6---5-------4-6---5---------------------|
Tap to rate this tab
 
# A B C D E F G H I J K L M N O P Q R S T U V W X Y Z