Song name
# A B C D E F G H I J K L M N O P Q R S T U V W X Y Z

The Dopamines - Vices tab

Simple but fun song to play. Strum each chord as many times as needed.

* = palm mute

Intro
E|----------------------------------------------------------|
B|----------------------------------------------------------|
G|----------------------------------------------------------|
D|------------333777777777333777777777555-------------------|
A|------------xxxxxxxxxxxxxxx777777777555-------------------|
E|--5555555555111555555555111555555555333-------------------|
    **********                ********

Verse 1
E|----------------------------------------------------------|
B|----------------------------------------------------------|
G|--5-----------------5-----------------5-------------------|
D|--5---------7---6-5-5---------7---3---5-------------------|
A|--3---------7---6-5-3---------7---3---3-------------------|
E|------------5---4-3-----------5---1-----------------------|

Chorus ("how long have I been passed out")
E|----------------------------------------------------------|
B|----------------------------------------------------------|
G|--10--7---5-------10--7-----------------------------------|
D|--10--7---5---8---10--7-----------------------------------|
A|--8---5---3---8---8---5-----------------------------------|
E|--------------6-------------------------------------------|

Verse 2
E|----------------------------------------------------------|
B|----------------------------------------------------------|
G|--5-----------------5-----------------5---------------5---|
D|--5---------7---6-5-5---------7---3---5-8-7-5-3---6---5---|
A|--3---------7---6-5-3---------7---3---3-8-7-5-3---6---3---|
E|------------5---4-3-----------5---1-----6-5-3-1---4-------|

Chorus 2            (in 3/4)
E|----------------------------------------------------------|
B|----------------------------------------------------------|
G|-------------------5--------7--5--------------------------|
D|-------------------5--8--3--7--5--8--7--5--3----6---------|
A|--8888888855555555-3--8--3--5--3--8--7--5--3----6---------|
E|----------------------6--1--------6--5--3--1----4---------|
    ****************
Tap to rate this tab
# A B C D E F G H I J K L M N O P Q R S T U V W X Y Z