Song name
# A B C D E F G H I J K L M N O P Q R S T U V W X Y Z

The Dovells - Bristol Stomp tab

Help us improve GuitareTab! Take a short survey!
The Dovells
Bristol Stomp
Tuning: Standard
Transcribed by Soch Hean

The Dovells are a doo-wop band back in the '60s. You find more info on them at this 
http://www.dovells.com/dovbio.htm

Intro:
|-3--3-3-3-3---3--3-3-3-3----8--8-8-8-8---10--10-----------|
|-3--3-3-3-3---5--5-5-5-5----8--8-8-8-8---10--10-----------|
|-4--4-4-4-4---4--4-4-4-4----9--9-9-9-9---11--11-----------|
|----------------------------------------------------------|
|----------------------------------------------------------|
|----------------------------------------------------------| (x2)

Chorus:
|-3--3-3-3-3---3--3-3-3-3----8--8-8-8-8---10--10-----------|
|-3--3-3-3-3---5--5-5-5-5----8--8-8-8-8---10--10-----------|
|-4--4-4-4-4---4--4-4-4-4----9--9-9-9-9---11--11-----------|
|----------------------------------------------------------|
|----------------------------------------------------------|
|----------------------------------------------------------| (x2)

Verse:
|-3--3-3-3-3---3--3-3-3-3----8--8-8-8-8---10--10-10-10-10--|
|-3--3-3-3-3---5--5-5-5-5----8--8-8-8-8---10--10-10-10-10--|
|-4--4-4-4-4---4--4-4-4-4----9--9-9-9-9---11--11-11-11-11--|
|----------------------------------------------------------|
|----------------------------------------------------------|
|----------------------------------------------------------| (x3)


[Chorus]


Verse 2:
|-3--3-3-3-3---3--3-3-3-3----8--8-8-8-8---10--10-10-10-10--|
|-3--3-3-3-3---5--5-5-5-5----8--8-8-8-8---10--10-10-10-10--|
|-4--4-4-4-4---4--4-4-4-4----9--9-9-9-9---11--11-11-11-11--|
|----------------------------------------------------------|
|----------------------------------------------------------|
|----------------------------------------------------------| (x3)


[Chorus]


Bridge: (It's got that groovy beat...)
|-8---8-8-8---8--8-8-8---8--8-8-8---8--8-8-8----3---3-3-3---3---3-3-3---|
|-8---8-8-8---8--8-8-8---8--8-8-8---8--8-8-8----3---3-3-3---3---3-3-3---|
|-9---9-9-9---9--9-9-9---9--9-9-9---9--9-9-9----4---4-4-4---4---4-4-4---|
|-----------------------------------------------------------------------|
|-----------------------------------------------------------------------|
|-----------------------------------------------------------------------|

|-3---3-3-3---3---3-3-3---8---8-8-8---8---8-8-8---8---8-8-8---8---8-8-|
|-3---3-3-3---3---3-3-3---8---8-8-8---8---8-8-8---8---8-8-8---8---8-8-|
|-4---4-4-4---4---4-4-4---9---9-9-9---9---9-9-9---9---9-9-9---9---9-9-|
|---------------------------------------------------------------------|
|---------------------------------------------------------------------|
|---------------------------------------------------------------------|

|--9--10--10-10-10---9---9--9--9---10-----9---10--10-10-10----|
|--9--10--10-10-10---9---9--9--9---10-----9---10--10-10-10----|
|-10--11--11-11-11--10--10-10-10---11----10---11--11-11-11----|
|-------------------------------------------------------------|
|-------------------------------------------------------------|
|-------------------------------------------------------------|

Verse 3:
|-3--3-3-3-3---3--3-3-3-3----8--8-8-8-8---10--10-10-10-10--|
|-3--3-3-3-3---5--5-5-5-5----8--8-8-8-8---10--10-10-10-10--|
|-4--4-4-4-4---4--4-4-4-4----9--9-9-9-9---11--11-11-11-11--|
|----------------------------------------------------------|
|----------------------------------------------------------|
|----------------------------------------------------------| (x3)


[Chorus]


Verse 4:
|-3--3-3-3-3---3--3-3-3-3----8--8-8-8-8---10--10-10-10-10--|
|-3--3-3-3-3---5--5-5-5-5----8--8-8-8-8---10--10-10-10-10--|
|-4--4-4-4-4---4--4-4-4-4----9--9-9-9-9---11--11-11-11-11--|
|----------------------------------------------------------|
|----------------------------------------------------------|
|----------------------------------------------------------| (x3)

Chorus:
|-3--3-3-3-3---3--3-3-3-3----8--8-8-8-8---10--10-----------|
|-3--3-3-3-3---5--5-5-5-5----8--8-8-8-8---10--10-----------|
|-4--4-4-4-4---4--4-4-4-4----9--9-9-9-9---11--11-----------|
|----------------------------------------------------------|
|----------------------------------------------------------|
|----------------------------------------------------------| (x3)

[Fade out]
Related for Bristol Stomp tab