Song name
# A B C D E F G H I J K L M N O P Q R S T U V W X Y Z

The Downtown Fiction - I Just Wanna Run tab

----------------------------------------------------------------------------
			     I Just Wanna Run- The Downtown Fiction
----------------------------------------------------------------------------
Tabbed by: Alli Blackerby
Email: ablackerby@bellsouth.net


Tuning: Standard

Intro- (0:00- 0:14)
Palm mute until the second time through about halfway through B chord
e|-------------------------------------------------------------------------|
B|-------------------------------------------------------------------------|
G|-6-6-6-6-6-6-6-6--9-9-9-9-9-9-9-9----------------------------------------|x2
D|-6-6-6-6-6-6-6-6--9-9-9-9-9-9-9-9-9-9-9-9-9-9-9-9--4-4-4-4-4-4-4-4-------|
A|-4-4-4-4-4-4-4-4--7-7-7-7-7-7-7-7-9-9-9-9-9-9-9-9--4-4-4-4-4-4-4-4-------|
E|----------------------------------7-7-7-7-7-7-7-7--2-2-2-2-2-2-2-2-------|


Intro part two (0:15-0:23)
e|-------------------------------------------------------------------------|
B|-------------------------------------------------------------------------|
G|-6-6-6-6-6-6-6-6--9-9-9-9-9-9-9-9----------------------------------------|
D|-6-6-6-6-6-6-6-6--9-9-9-9-9-9-9-9-9-9-9-9-9-9-9-9--4-4-4-4-4-4-4-4-------|
A|-4-4-4-4-4-4-4-4--7-7-7-7-7-7-7-7-9-9-9-9-9-9-9-9--4-4-4-4-4-4-4-4-------|
E|----------------------------------7-7-7-7-7-7-7-7--2-2-2-2-2-2-2-2-------|

Verse
palm mute the first two time you play each set of three
e|-------------------------------------------------------------------------|
B|-------------------------------------------------------------------------|
G|-6-6-6---6-6-6---9-9-9---9-9-9-------------------------------------------|
D|-6-6-6---6-6-6---9-9-9---9-9-9---9-9-9---9-9-9---4-4-4---4-4-4-----------|x3
A|-4-4-4---4-4-4---7-7-7---7-7-7---9-9-9---9-9-9---4-4-4---4-4-4-----------|
E|---------------------------------7-7-7---7-7-7---2-2-2---2-2-2-----------|

e|-------------------------------------------------------------------------|
B|-------------------------------------------------------------------------|
G|-6-6-6---6-6-6---9-9-9---9-9-9-------------------------------------------|
D|-6-6-6---6-6-6---9-9-9---9-9-9---9-9-9-9-9-9-9-9---4-4-4-4---------------|
A|-4-4-4---4-4-4---7-7-7---7-7-7---9-9-9-9-9-9-9-9---4-4-4-4---------------|
E|---------------------------------7-7-7-7-7-7-7-7---2-2-2-2---------------|

Chorus:
e|-------------------------------------------------------------------------|
B|-------------------------------------------------------------------------|
G|-6-6-6-6-6-6-6-6--9-9-9-9-9-9-9-9----------------------------------------|x2
D|-6-6-6-6-6-6-6-6--9-9-9-9-9-9-9-9-9-9-9-9-9-9-9-9--4-4-4-4-4-4-4-4-------|
A|-4-4-4-4-4-4-4-4--7-7-7-7-7-7-7-7-9-9-9-9-9-9-9-9--4-4-4-4-4-4-4-4-------|
E|----------------------------------7-7-7-7-7-7-7-7--2-2-2-2-2-2-2-2-------|

Post-chorus:
e|-------------------------------------------------------------------------|
B|-9-9-9-9---11-11-11-11---13-13-13-13-13-13-13-13-------------------------|
G|-x-x-x-x---x--x--x--x----x--x--x--x--x--x--x--x--------------------------|
D|-7-7-7-7---9--9--9--9----11-11-11-11-11-11-11-11-------------------------|
A|-------------------------------------------------------------------------|
E|-------------------------------------------------------------------------|

Its pretty much repeats itself after that. There are a few variations in palm muting and 
but you'll figure it out.

Soloish thing (2:08)
e|---------------------------------------------------------------------------|
B|-13-13-13-13---9- 9-9-9---11-11-11-11---8-8-8-8---11-11-11-11--------------|
G|-x--x--x--x----x-x-x-x---x--x--x--x----x-x-x-x---x--x--x--x----------------|
D|-11-11-11-11---7-7-7-7---9--9--9--9----6-6-6-6---9--9--9--9----------------|
A|---------------------------------------------------------------------------|
E|---------------------------------------------------------------------------|

e|--------------------------------------------------------------------------|
B|-8-8-8-/-9-\-8--6---------------------------------------------------------|
G|-x-x-x-/-x-\-x--x---------------------------------------------------------|
D|-6-6-6-/-7-\-6--4---------------------------------------------------------|
A|--------------------------------------------------------------------------|
E|--------------------------------------------------------------------------|

e|--------------------------------------------------------------------------|
B|-13-13-13-13---9- 9-9-9---11-11-11-11---8-8-8-8--6--8--9--11--18----------|
G|-x--x--x--x----x-x-x-x---x--x--x--x----x-x-x-x--x--x--x---x---x-----------|
D|-11-11-11-11---7-7-7-7---9--9--9--9----6-6-6-6--4--6--7---9--16-----------|
A|--------------------------------------------------------------------------|
E|--------------------------------------------------------------------------|
Tap to rate this tab
 
# A B C D E F G H I J K L M N O P Q R S T U V W X Y Z