Song name
# A B C D E F G H I J K L M N O P Q R S T U V W X Y Z

The Downtown Fiction - When The Power Goes Out tab

-----------------------------------------------------------------------------
			     WHEN THE POWER GOES OUT - The Downtown Fiction
-----------------------------------------------------------------------------
Tabbed by: MirandaTDFfan
Email: I don't check my email much, but feel free to email me anway. claire-pink14@hotmail.com

Standard Tuning


/=slide to
*=Mute note


INTRO:
e----------------------|
B----------------------|
G----------------------|
D-9-9-9---9-9-11-------|
A-9-9-9---9-9-11-------|
E-7-7-7---7-7-9--------|

(I just wanna play board games, I just wanna play board games)
e----------------------|
B----------------------|
G----------------------|
D-9-9-9---11-11-11-----|
A-9-9-9---11-11-11-----|
E-7-7-7---9--9--9------|

(when the power goes out..when the power goes out)
e----------------------|
B----------------------|
G----------------------|
D-8/9-9-9---9-9-9------|
A-8/9-9-9---9-9-9------|
E-6/7-7-7---7-7-7------|

(I know you wanna get on top of me, but I'd rather play monopoly)
e----------------------|
B----------------------|
G----------------------|
D-9-9-9---11-11-11-----|
A-9-9-9---11-11-11-----|
E-7-7-7---9--9--9------|

(when I hear you shout..wah ah ah)
e----------------------|
B----------------------|
G----------------------|
D-8/9-9-9---9********--|
A-8/9-9-9---9********--|
E-6/7-7-7---7********--|

(I know you wanna get frisky, but I'd rather get risky)
e----------------------|
B----------------------|
G----------------------|
D-9-9-9---11-11-11-----|
A-9-9-9---11-11-11-----|
E-7-7-7---9--9--9------|

(when I hear you shout)
e----------------------|
B----------------------|
G----------------------|
D-9-9-9----------------|
A-9-9-9----------------|
E-7-7-7----------------|

((no singing))
e----------------------------|
B----------------------------|
G----------------------------|
D-9-9-**-9-9-**-9-9-9-9-9-9--|
A-9-9-**-9-9-**-9-9-9-9-9-9--|
E-7-7-**-7-7-**-7-7-7-7-7-7--|

(I'm not looking for some stupid hoe who gets)
e----------------------|
B----------------------|
G----------------------|
D-9--------------------|
A-9--------------------|
E-7--------------------|

(200 dollars every time she passes go)
e----------------------|
B----------------------|
G----------------------|
D-11-------------------|
A-11-------------------|
E-9--------------------|

(I wanna girl whos sweet and true)
e----------------------|
B----------------------|
G----------------------|
D-9-9-9-9--------------|
A-9-9-9-9--------------|
E-7-7-7-7--------------|

(with a little green house on Baltic(?) avenue)
e----------------------|
B----------------------|
G----------------------|
D-9-9-9-9--------------|
A-9-9-9-9--------------|
E-7-7-7-7--------------|

((I have NO idea what he says here))
e----------------------|
B----------------------|
G----------------------|
D-9-9-9-9--------------|
A-9-9-9-9--------------|
E-7-7-7-7--------------|

(makes me wanna smile every time I see your pretty face)
e----------------------|
B----------------------|
G----------------------|
D-11-------------------|
A-11-------------------|
E-9--------------------|

(you'll be the iron and I'll be the shoe)
e----------------------|
B----------------------|
G----------------------|
D-9--------------------|
A-9--------------------|
E-7--------------------|

(c'mon baby girl, and let me show you how we do)
e----------------------|
B----------------------|
G----------------------|
D-9999999999999--------|
A-9999999999999--------|
E-7777777777777--------|

(we're playing playing board games, I just wanna play board games)
e----------------------|
B----------------------|
G----------------------|
D-9-9-9---11-11-11-----|
A-9-9-9---11-11-11-----|
E-7-7-7---9--9--9------|

(when the power goes out)
e----------------------|
B----------------------|
G----------------------|
D-9-9-7-8-9------------|
A-9-9-7-8-9------------|
E-7-7-5-6-7------------|
Tap to rate this tab
 
# A B C D E F G H I J K L M N O P Q R S T U V W X Y Z