Song name
# A B C D E F G H I J K L M N O P Q R S T U V W X Y Z

The Downtown Fiction - I Just Wanna Run chords

Highlighted       Show chord diagrams
FB:http://www.facebook.com/ulopez3

    C#m      E       B       F#     Asus
E|------|--------|-------|-------|-------|
B|------|--------|-------|-------|-------|
G|---6--|--------|---4---|-------|---2---|
D|---6--|----2---|---4---|---4---|---2---|
A|---4--|----2---|---2---|---4---|---0---|
E|------|----0---|-------|---2---|-------|

_____________________________________________________________________________

    C#m              E
I just wanna run, hide it away
                       B         F#
Run because they're chasing me down
              C#m              E
I just wanna run, throw it away
                     B         F#
Run before they're finding me out
              C#m   E   B   F#
I just wanna run


1st Verse
  C#m
I just wanna run
                   E
I'm out here all alone
                    B
I try to call your house
                         F#
Can't reach you on the phone
                     C#m
I'll gather up the nerve
                   E
I'm packing up my bag
                     B
It's more than you deserve
                       F#
Don't treat me like a drag


Pre-Chorus
                   C#m
I'm feelin' like I keep on talking
 E
I'm repeating
 B                F#
Myself, my words lost all meaning
C#m
I keep talking
E          B     F#
I repeat myself


Chorus
              C#m             E
I just wanna run, hide it away
                       B        F#
Run because they're chasing me down
             C#m               E
I just wanna run, throw it away
                      B        F#
Run before they're finding me out
              Asus
I just wanna run
              F#
I just wanna run


2nd Verse
                 C#m
Like a game of chess
                 E
I predict your move
                      B
I think I know you better
                 F#
Better than you do
                      C#m
I'm sick of feeling cheap
               E
Cheated and abused
                 B
Sick of losing sleep
                F#
Thinking about you


Pre-Chorus
                   C#m
I'm feelin' like I keep on talking
 E
I'm repeating
 B                F#
Myself, my words lost all meaning
C#m
I keep talking
E          B     F#
I repeat myself


Chorus
              C#m             E
I just wanna run, hide it away
                       B        F#
Run because they're chasing me down
             C#m               E
I just wanna run, throw it away
                      B        F#
Run before they're finding me out
              Asus
I just wanna run
              F#
I just wanna run

Solo
C#  E  B  F# x2

Bridge
              C#m             E
I just wanna run, hide it away
                       B        F#
Run because they're chasing me down
             C#m               E
I just wanna run, throw it away
                      B        F#
Run before they're finding me out

Chorus
              C#m             E
I just wanna run, hide it away
                       B        F#
Run because they're chasing me down
             C#m               E
I just wanna run, throw it away
                      B        F#
Run before they're finding me out
              Asus
I just wanna run
              F#
I just wanna run

_____________________________________________________________________________

Guitar II

Chorus Riff

E|---99999--|    E|---7777---|---6666---|
B|----------|    B|----------|----------|
G|---66666--|>X2 G|---4444---|---3333---|
D|----------|    D|----------|----------|
A|----------|    A|----------|----------|
E|----------|    E|----------|----------|
____________________________________________________________________________

Solo:

e|---------------------------------------------------------------------------|
B|---------------------------------------------------------------------------|
G|--13-13-13---9-9-9-9---11-11-11---8-8-8-8---11-11-11--8-8-8-8-8-/-9-\------|
D|---------------------------------------------------------------------------|
A|---------------------------------------------------------------------------|
E|---------------------------------------------------------------------------|

e|---------------------------------------------------------------------------|
B|---------------------------------------------------------------------14----|
G|-6-6-4----13-13-13---9-9-9-9---11-11-11---8-8-8-8-8---9---11---13----------|
D|---------------------------------------------------------------------------|
A|---------------------------------------------------------------------------|
E|---------------------------------------------------------------------------|


Bend: (/),(\)
Tap to rate this tab
 
# A B C D E F G H I J K L M N O P Q R S T U V W X Y Z