Song name
# A B C D E F G H I J K L M N O P Q R S T U V W X Y Z

The Downtown Fiction - Take Me Home tab

     
   Intro:

|----------------------------------------------------|
|-------------222------------------------------------|
|--999999-444-222------------------------------------|
|--999999-444-222------------------------------------|
|--777777-222----------------------------------------|
|----------------------------------------------------| (x2)

Solo (After Intro):
|----------------------------------------------------|
|-----12---------------------------------------------|
|---9----9-8-9---------------------------------------|
|--------------11------------------------------------|
|----------------------------------------------------|
|----------------------------------------------------| (x2)

Verse (1st and 2nd):

|----------------------------------------------------|
|--------22------------------------------------------|
|--22-44-22------------------------------------------|
|--22-44-22------------------------------------------|
|--22-22---------------------------------------------|
|----------------------------------------------------| (x3)Both Times

Chorus (Second Chorus play twice)

|----------------------------------------------------------|
|--------------------22222-----------------2222222222222---|
|--22222-44444-------22222-2222222-4444444-2222222222222---|
|--22222-44444-44444-22222-2222222-4444444-2222222222222---|
|--22222-22222-44444-------2222222-2222222-----------------|
|--------------22222---------------------------------------|

Repeat Solo (x1)

Repeat Verse

Repeat Chorus (x2)

Bridge:

|-------------------------------------------------------------|
|-------222222----------------------222222--------------------|
|-------222222-222222-444444--------222222-444444444444444----|
|-44444-222222-222222-444444-444444-222222-444444444444444----|
|-44444--------222222-222222-444444--------222222222222222----|
|-22222----------------------222222---------------------------|

Second Part of bridge they sing 
"OhOh OhOh" a lot of times then you repeat chorus x2 and the song ends.

Tap to rate this tab
 
# A B C D E F G H I J K L M N O P Q R S T U V W X Y Z