Guitaretab - guitar tabs
Song name
# A B C D E F G H I J K L M N O P Q R S T U V W X Y Z

The Draytones - Keep Loving Me tab

-----------------------------------------------------------------------------
			    Keep Loving Me - The Draytones
-----------------------------------------------------------------------------
Tabbed by:Waldissimo
Email:vergaraw@hotmail.com

Tuning:
    (C)     (A)(D)  (E)             (G)   (B7)
e|---0---0---0--2----0------      e|-3------2---------------------|        
B|---1---3---2--3----0------      B|-0------0---------------------|          
G|---0---0---2--2----1------ (X3) G|-0--(x4)2---(x4)--------------|
D|---2---2---2--0----2------      D|-0------1---------------------|
A|---3---3---0-------2------      A|-2------2---------------------|
E|-------------------0------      E|-3----------------------------|
[ Tab from: http://www.guitaretab.com/t/the-draytones/96461.html ]
e|---------------------------------------------------------------|
B|---------------------------------------------------------------|
G|---------------------------------------------------------------| (x3)
D|---------------------------------------------------------------|
A|---------0-0-0-0--3-3-3-3-----2-2-2-2--------------------------|
E|-0-0-0-0-------------------------------------------------------|
    
   (x2)   (x2)  (x2)  (x2)
e|--0------3-----0----2-------------------------------|  
B|--0------0-----1----0-------------------------------|
G|--0------0-----0----2-------------------------------|   (X4)
D|--2------0-----2----1-------------------------------| 
A|--2------2-----3----2-------------------------------|
E|--0------3-----0------------------------------------|
andd repeats and repeats
(listen to the song to do it righ)
waldissimo
Draytones: www.draytones.com
=============================================================================
Related for Keep Loving Me tab