Song name
# A B C D E F G H I J K L M N O P Q R S T U V W X Y Z

The Dreadnoughts - The Skrigjaargen Polka tab

http://www.thedreadnoughts.com/

KURWA MAC! Poland rox! :D

E1--12--12--10--8--10--7--7--7--8--12--10--8--7--8--7-------------7--8--10-|
B2--10-------------------------------------------------10--9--10-----------|
G3-------------------------------------------------------------------------|
D4-------------------------------------------------------------------------|
A5-------------------------------------------------------------------------|
E6-------------------------------------------------------------------------|

E1--12--12--10--8--10--7--7--7--8--12--10--8--7------12-|
B2--10-------------------------------------------10--10-|
G3------------------------------------------------------|
D4------------------------------------------------------|
A5------------------------------------------------------|
E6------------------------------------------------------|

Enjoy!
Tap to rate this tab
# A B C D E F G H I J K L M N O P Q R S T U V W X Y Z