The Dreams - Black Sheep tab

 Black Sheep – The Dreams tabs
This is my first tabs EVER, so they are not that good. I’m not sure that they are 
cause there isn’t any tabs for this song out yet so they were made by ear.
Tabs By : Andreas Jeppesen aka MasterSquirrelAids (youtube account)
Song By : The Dreams

Palm mute = *
 [ 0:00 – 1:07] (With a little Distortion)
e|----------------------------|
B|----------------------------|
G|--44-44-55-55-55-55-44-44---|
D|----------------------------|
A|-7--7--0--0--5--5--6--6-----|
E|----------------------------|
   ************************
[ 1:08 – 1:18 ] (Without Distortion)
e|--------------------------------------------|
B|--------------------------------------------|
G|-99999999999999999999-77777777777777777777--|
D|-99999999999999999999-77777777777777777777--|
A|-77777777777777777777-99999999999999999999--|
E|--------------------------------------------|

e|-------------------------------------------------------------|
B|-------------------------------------------------------------|
G|-9-9-9-9-9-9-9-9-9-9-9-9-9-9-9-9-9-9-9-9---------------------|
D|-9-9-9-9-9-9-9-9-9-9-9-9-9-9-9-9-9-9-9-9---------------------|
A|-1010101010101010101010101010101010101010--------------------|
E|-------------------------------------------------------------|

[ 1:19 – 1:30 ] (Without Distortion)
I’m not sure if this is how it is but if you can’t make it fit the time then try to hold 
a little longer (the first chord)


e|--------------------------------------------|
B|--------------------------------------------|
G|-99999999999999999999-77777777777777777777--|
D|-99999999999999999999-77777777777777777777--|
A|-77777777777777777777-99999999999999999999--|
E|--------------------------------------------|

e|-------------------------------------------------------------|
B|-------------------------------------------------------------|
G|-9-9-9-9-9-9-9-9-9-9-9-9-9-9-9-9-9-9-9-9---------------------|
D|-9-9-9-9-9-9-9-9-9-9-9-9-9-9-9-9-9-9-9-9---------------------|
A|-1010101010101010101010101010101010101010--------------------|
E|-------------------------------------------------------------|

e|------------------------|
B|------------------------|
G|-99999999999999999999---|
D|-99999999999999999999---|
A|-99999999999999999999---|
E|------------------------|

[ 1:31 – 1:48 ] (With Distortion)

e|------------------------------------------------|
B|------------------------------------------------|
G|-9999-5555-7777-4444-9999-5555-7777-4-4-4444444-|
D|-9999-7777-7777-4444-9999-7777-7777-4-4-4444444-|
A|-7777-0000-5555-6666-7777-0000-5555-6-6-6666666-|
E|------------------------------------------------|

   [ 1:49 – 2:42 ]
e|----------------------|
B|----------------------|
G|-9999-5555-7777-4444--|
D|-9999-7777-7777-4444--|
A|-7777-0000-5555-6666--|
E|----------------------|

(At the ”la la la la” part you play like they sing. When you are at the last chord at 
“la la la la” part you just hold it untill”I know you heard it all before…”
 [ 2:43 – 2:48 ]
e|--------|
B|--------|
G|-9-7-9--|
D|-9-7-9--|
A|-7-9-10-|
E|--------|

Congratulations! You can now play Black Sheep by The Dreams!

Home Site : http://www.the-dreams.eu/
Tap to rate this tab
 
# A B C D E F G H I J K L M N O P Q R S T U V W X Y Z