Song name
# A B C D E F G H I J K L M N O P Q R S T U V W X Y Z

The Drills - Air Hockey Champion tab

Phil X/The Drills - Air Hockey Champion

e -----------------x-x--------------------------x-x-x----------|
b -----------------x-x-8p7-8p7------------------x-x-x----------|
g ------5----------x-x-7-7-7-7-------5----------x-x-x----------|
d 0-3-5-5-5-3-0--0-x-x---------0-3-5-5-5-3-0--0-x-x-x-0-3-5----|   x2
a 0-3-5-3-5-3-0--0-x-x---------0-3-5-3-5-3-0--0-x-x-x-0-3-5----|
d 0-3-5---5-3-0--0-x-x---------0-3-5---5-3-0--0-x-x-x-0-3-5----|

e ----------------------------------------------------------------|
b ----------------------------------------------------------------|
g ----------------------------------------------------------------|
d 3-3-3-3-3-3-3-3-3-3-3-3-3-3-3-3-3-3-3-3-3-3-3-3-3-3-3-3-3-3-4-5-|
a 3-3-3-3-3-3-3-3-3-3-3-3-3-3-3-3-3-3-3-3-3-3-3-3-3-3-3-3-3-3-4-5-|
d 3-3-3-3-3-3-3-3-3-3-3-3-3-3-3-3-3-3-3-3-3-3-3-3-3-3-3-3-3-3-4-5-|

e ------------------------------------------------------------|
b ------------------------------------------------------------|
g ------------------------------------------------------------|
d 3-3-3-3-3-3-3-3-3-3-3-3-3-5-5-0--5-5-0--5-5-0--5-5-0--0-3-5-|
a 3-3-3-3-3-3-3-3-3-3-3-3-3-5-5-0--5-5-0--5-5-0--5-5-0--0-3-5-|
d 3-3-3-3-3-3-3-3-3-3-3-3-3-5-5-0--5-5-0--5-5-0--5-5-0--0-3-5-|

e ----------------------------------------------------------------|
b ----------------------------------------------------------------|
g ----------------------------------------------------------------|
d 3-3-3-3-3-3-3-3-3-3-3-3-3-3-4-5-3-3-3-3-3-3-3-3-3-3-3-3-3-3-4-5-|
a 3-3-3-3-3-3-3-3-3-3-3-3-3-3-4-5-3-3-3-3-3-3-3-3-3-3-3-3-3-3-4-5-|
d 3-3-3-3-3-3-3-3-3-3-3-3-3-3-4-5-3-3-3-3-3-3-3-3-3-3-3-3-3-3-4-5-|

e --------------------------------------------x-x-x-x-x-x-x------|
b --------------------------------------------x-x-x-x-x-x-x------|
g --------------------------------------------x-x-x-x-x-x-x-5----|
d 3-3-3-3-3-3-3-3-3-3-3-3-3-5-5-0--5-5-0--5-5-x-x-x-x-x-x-x-5--5-|
a 3-3-3-3-3-3-3-3-3-3-3-3-3-5-5-0--5-5-0--5-5-x-x-x-x-x-x-x-3--5-|
d 3-3-3-3-3-3-3-3-3-3-3-3-3-5-5-0--5-5-0--5-5-x-x-x-x-x-x-x----5-|

e ----------------------------------------------------------|
b ----------------------------------------------------------|
g ---------3-5-7-----10-12---------------10-10--------------|
d 0--6-1-3-3-5-7-0-0-10-12-0-0-10-12-0-0-10-12-0-0-10-12----|   x2
a 0--6-1-3-1-3-5-0-0-8--10-0-0-10-12-0-0-8--10-0-0-10-12----|
d 0--6-1-3-------0-0-------0-0-10-12-0-0-------0-0-10-12----|

e ----------------------------------------------------------------|
b ----------------------------------------------------------------|
g 7-7-7-7-7-7-7-7-7-7-7-7-7-7-7-7-7-7-7-7-7-7-7-7-7-7-7-7-7-7-7-7-|
d 8-8-8-7-7-7-7-7-7-7-7-7-7-7-7-7-8-8-8-7-7-7-7-7-7-7-7-7-7-7-7-7-|
a ----------------------------------------------------------------|
d ----------------------------------------------------------------|

e ----------------------------------|
b ----------------------------------|
g ----------------------------------|
d 0-0-0--0-0-0--0-0-0-0-0-0-0-0-0-0-|
a 0-0-0--0-0-0--0-0-0-0-0-0-0-0-0-0-|
d 0-0-0--0-0-0--0-0-0-0-0-0-0-0-0-0-|

e -----------------x-x--------------------------x-x-x-----------|
b -----------------x-x-8p7-8p7------------------x-x-x-----------|
g ------5----------x-x-7-7-7-7-------5----------x-x-x-----------|
d 0-3-5-5-5-3-0--0-x-x---------0-3-5-5-5-3-0--0-x-x-x-0-3-5-----|    x2
a 0-3-5-3-5-3-0--0-x-x---------0-3-5-3-5-3-0--0-x-x-x-0-3-5-----|
d 0-3-5---5-3-0--0-x-x---------0-3-5---5-3-0--0-x-x-x-0-3-5-----|

just continue like this
Tap to rate this tab
 
# A B C D E F G H I J K L M N O P Q R S T U V W X Y Z