Song name
# A B C D E F G H I J K L M N O P Q R S T U V W X Y Z

The Drums - Lets Go Surfing tab

Letís Go Surfing Ė The Drums
Tabbed by Chris Hogarth

Main Riff: (this is maintained nearly the entire song)
e|-----------------------------------------------------------------| 
B|-----------------------------------------------------------------| 
G|----------------------------------------------------------------o| 
D|-----------------------------------------------------------------|
A|-4-4-4-4-4-4-3-3-1-1-1-----------4-4-4-4-4-4-3-3-1-1-1----------o| 
E|-----------------------1-1-1-1-1-----------------------1-1-1-1-1-|


Chorus Riffs:
This one come in first
e|------------------------------------| 
B|-1--1--3-3-3---1--1-1-1--3-3-3-3----| 
G|-----------------------------------o| 
D|------------------------------------|
A|-----------------------------------o| 
E|------------------------------------|

This comes in over the top 
e|------------------------------------| 
B|-2--2--4-4-4---2--2-2-2--4-4-4-4----| 
G|-----------------------------------o| 
D|------------------------------------|
A|-----------------------------------o| 
E|------------------------------------|



Main riff x2

Verse 1 (Main riff x4)

Chorus (Chorus Riffs 1 x4 with Riff 2 coming in on the third time and played twice.)

Interlude (Main riff x2)

Verse 2 (Main riff x4)

Chorus 

Interlude (Main riff x2)

Bridge (Main riff x3 then vocals by themselves)

Chorus x2

Outro (Chorus without vocals followed by Bridge)



http://wearethedrums.com/index2.html
Tap to rate this tab
# A B C D E F G H I J K L M N O P Q R S T U V W X Y Z