Song name
# A B C D E F G H I J K L M N O P Q R S T U V W X Y Z

The Drums - Instruct Me tab

It's not much but I'm really proud of it and wanted to post it as my first ever tab :D 
goes

it's the main riff that repeats throughout the song

e------11------------------------|
B--12------12--------------------|
G-------------9------------------|
D--------------------------------|
A--------------------------------|
E--------------------------------|

and then I guess it just repeats later on in a lower pitch, maybe...

e--------------------------------|
B--------------------------------|
G--------------------------------|
D--------------------------------|
A-------6------------------------|
E---7-------7-0------------------|

hope that's right
Tap to rate this tab
 
# A B C D E F G H I J K L M N O P Q R S T U V W X Y Z