Song name
# A B C D E F G H I J K L M N O P Q R S T U V W X Y Z

The Drums - Submarine tab

Guitar 1 (VERSE)

e|-----------------------------------------------------------------|
B|-----------------------------------------------------------------|
G|----------------------------------------------------------------o|
D|-----------------------------------------------------------------|
A|-7-7--5-5-5-5-5-5-5-4-4-2-2-2-2-2-2-2---------------------------o|
E|-----------------------------------------------------------------|


Guitar 2 (VERSE)
e|--------------------------------------------------------------------|
B|--------------------------------------------------------------------|
G|-13-13-14-14-11-11-13-13--13-13-11-11-9-9-11-11------------------o--|
D|--------------------------------------------------------------------|
A|----------------------------------------------------------------o---|
E|--------------------------------------------------------------------|


Guitar 2 (CHORUS)
e|-----------------------------------------------------------------|
B|-----------------------------------------------------------------|
G|-13-13-13-14-16-13-13-13-14-16-13-13-13-14-16-13-13-13-18-16----o|
D|-----------------------------------------------------------------|
A|----------------------------------------------------------------o|
E|-----------------------------------------------------------------|


Guitar 1
e|-----------------------------------------------------------------|
B|-----------------------------------------------------------------|
G|----------------------------------------------------------------o|
D|-----------------------------------------------------------------|
A|-7-7--5-5-5-5-5-5-5-4-4-2-2-2-2-2-2-2---------------------------o|
E|-----------------------------------------------------------------|

Guitar 2

e|-------------------------------------------------------------------|
B|-------------------------------------------------------------------|
G|-------------------------------------------------------------------|
D|--18-18-19-19-16-18----18-18-16-16-14-14-16------------------------|
A|-------------------------------------------------------------------|
E|-------------------------------------------------------------------|

Guitar 2 (SOLO)
e|-------------------------------------------------------------------|
B|-------------------------------------------------------------------|
G|-------------------------------------------------------------------|
D|--14-14-14-18-18-14-14-16-16-16------------------------------------|
A|-------------------------------------------------------------------|
E|-------------------------------------------------------------------|


e|-------------------------------------------------------------------|
B|-------------------------------------------------------------------|
G|-------------------------------------------------------------------|
D|--14-14-14-11-11-9-9-11-13-13-11-11-9-9-11-------------------------|
A|-------------------------------------------------------------------|
E|-------------------------------------------------------------------|


LIVE VERSION RIFF @ END

e|-------------------------------------------------------------------|
B|-------------------------------------------------------------------|
G|-----16-13----13---------------------------------------------------|
D|--14-------16----13------------------------------------------------|
A|-------------------------------------------------------------------|
E|-------------------------------------------------------------------|
Tap to rate this tab
# A B C D E F G H I J K L M N O P Q R S T U V W X Y Z