Song name
# A B C D E F G H I J K L M N O P Q R S T U V W X Y Z

The Drums - Me And The Moon tab

The Drums - Me & the Moon
Tabbed By Jennifer James


Guitar 1 MAIN RIFF (Throughout whole song)

e|---------------------------------------------------------| 
B|---------------------------------------------------------| 
G|--------------------------------------------------------o| 
D|-2-2-3-2--5-5-5--5-5-------------------------------------|
A|--------------------------------------------------------o| 
E|---------------------------------------------------------|


Guitar 2 CHORUS RIFF
e|---------------------------------------------------------| 
B|-12-12-10-10-5-5-5-3-3-5---------------------------------| 
G|--------------------------------------------------------o| 
D|---------------------------------------------------------|
A|--------------------------------------------------------o| 
E|---------------------------------------------------------|



Guitar 2 SOLO RIFF
e|---------------------------------------------------------| 
B|---------------------------------------------------------| 
G|-4-4-4-4-4-4-5------------------------------------------o| 
D|---------------------------------------------------------|  X4
A|--------------------------------------------------------o| 
E|---------------------------------------------------------|


e|---------------------------------------------------------| 
B|---------------------------------------------------------| 
G|--------------------------------------------------------o| 
D|-2-2-0-0-0-----------------------------------------------|
A|--------------------------------------------------------o| 
E|---------------------------------------------------------|

Feel free to make comments/corrections :]
Tap to rate this tab
 
# A B C D E F G H I J K L M N O P Q R S T U V W X Y Z