Song name
# A B C D E F G H I J K L M N O P Q R S T U V W X Y Z

The Drums - Best Friend tab

The Drums - Best Friend
Tabbed By Jennifer James


Guitar 1 MAIN RIFF (Throughout whole song)

e|-----------------------------------------------------------------| 
B|-----------------------------------------------------------------| 
G|----------------------------------------------------------------o| 
D|-----------------------------------------------------------------|
A|--3-3-3-3-------------------------------------------------------o| 
E|----------1-1-1-1------------------------------------------------|


Guitar 2 VERSE RIFF

e|-----------------------------------------------------------------| 
B|-----------------------------------------------------------------| 
G|---0-0-----------2-2--4-4-2-2-----------------------------------o| 
D|--2-2--3-3-2----0-0----------------------------------------------|
A|----------------------------------------------------------------o| 
E|-----------------------------------------------------------------|



Guitar 2 CHORUS RIFF
e|-----------------------------------------------------------------| 
B|-----------------------------------------------------------------| 
G|--12-12-9-9-7-7-9-9-12-12-7-7-5-5-------------------------------o| 
D|-----------------------------------------------------------------|
A|----------------------------------------------------------------o| 
E|-----------------------------------------------------------------|

Still need to work on the solo

Feel free to add comments/corrections :]
Tap to rate this tab
 
# A B C D E F G H I J K L M N O P Q R S T U V W X Y Z