Song name
# A B C D E F G H I J K L M N O P Q R S T U V W X Y Z

The Drums - It Will All End In Tears tab

The Drums - It Will All End in Tears
Tabbed by Jennifer James

Please feel free to make comments/corrections

Guitar 1 VERSE RIFF

e|-----------------------------------------------------------------| 
B|-----------------------------------------------------------------| 
G|----------------------------------------------------------------o| 
D|-----------------------------------------------------------------|
A|--------5-5-5---5-----------------2-2-2---2---------------------o| 
E|--3-3-3--------3-3----------0-0-0--------0-0---------------------|



Guitar 2 VERSE MAIN RIFF
Listen to the song to work out the order as sometimes it's different
e|-----------------------------------------------------------------| 
B|-----------------------------------------------------------------| 
G|--12-11-4----12-12-11-4---12-11-4---12-12-12-12-4---------------o| 
D|-----------------------------------------------------------------|
A|----------------------------------------------------------------o| 
E|-----------------------------------------------------------------|


CHORUS RIFF

e|-----------------------------------------------------------------| 
B|-----------------------------------------------------------------| 
G|----------------------------------------------------------------o| 
D|--12-12-12--9-9-9-9--9-10--5-5-----------------------------------|
A|----------------------------------------------------------------o| 
E|-----------------------------------------------------------------|
Tap to rate this tab
# A B C D E F G H I J K L M N O P Q R S T U V W X Y Z