Song name
# A B C D E F G H I J K L M N O P Q R S T U V W X Y Z

The Drums - Forever And Ever Amen tab

The drums-forever & ever amen
      Intro & verse
      git 1
   e--------------------------------------------------|
   b--------------------------------------------------|  
   g--------------------------------------------------| 7x 
   d--------------------------------------------------|
   a--44444444444444441111111111111111----------------|
   e--------------------------------------------------|
 
   
   git 2
   e--------------------------------------------------|
   b--------------------------------------------------|  
   g—10111011-10-1011-1010-11-------------------------| 6x 
   d--------------------------11131113-11-1113-11113--|    
   a--------------------------------------------------|
   e--------------------------------------------------|


  
   pre –chorus
   git 1
   e--------------------------------------------------|
   b--------------------------------------------------| 4x 
   g--------------------------------------------------|  
   d--------------------------------------------------|
   a--------------------------------------------------|
   e--22-2-4-4-4-444----------------------------------|
   git 2
   e--------------------------------------------------|
   b--------------------------------------------------| 4x 
   g--1010-------11-1111-------last time:--10---------|  
   d------11-1010----------------------------11-------|
   a--------------------------------------------------|
   e--------------------------------------------------|




       break
       git 1
   e--------------------------------------------------|
   b--------------------------------------------------|  
   g--------------------------------------------------|  
   d--------------------------------------------------|
   a--44444444444444444444444444444444----------------|
   e--------------------------------------------------|

       chorus ( and it’s forever …)
      both git
   e--------------------------------------------------|
   b--------------------------------------------------|  
   g--------------------------------------------------| 2x  
   d--------------------------------------------------|
   a--44444444444444441111111111111111----------------|
   e--------------------------------------------------|

   e--------------------------------------------------|
   b--------------------------------------------------|  
   g--------------------------------------------------| 4x  
   d--------------------------------------------------|
   a--------------------------------------------------|
   e--2222222244444444--------------------------------|
   verse 5x
   pre-chorus 4x
   break
   chorus 
   break 
   
   bridge
   git 1
   e--------------------------------------------------|
   b--------------------------------------------------|  
   g--------------------------------------------------| 2x  
   d--------------------------------------------------|
   a--44444444444444441111111111111111----------------|
   e--------------------------------------------------|

   git 2
   e--------------------------------------------------|
   b--------------------------------------------------|  
   g----10-10-10-11-1010-10-10------------------------| 2x  
   d--11----------------------13----------------------|
   a--------------------------------------------------|
   e--------------------------------------------------|
   chorus 2x
   END
     
Tap to rate this tab
 
# A B C D E F G H I J K L M N O P Q R S T U V W X Y Z