Song name
# A B C D E F G H I J K L M N O P Q R S T U V W X Y Z

The Drums - Forever And Ever Amen tab

This is for the lead guitar. I can't hear the rhythm that well but it's just hitting 
bass notes.

Verse
We, we are in love
and we forever
We not gonna stop
We'll be forever
e|-----------------------------------------------------------|
B|-----------------------------------------------------------|
G|--10-11-10-11-10----11-10-11-------------------------------|
D|-------------------------------11-13-11-13-11----13-11-13--|
A|-----------------------------------------------------------|
E|-----------------------------------------------------------|

Pre Chorus
And all the stars in the sky
And all the flowers in the fields
And all the power in the earth
Could never take you from my heart
e|---------------------------------|
B|---------------------------------|
G|--10-10-------------11-11-11-11--|
D|--------11-11-10-10--------------|
A|---------------------------------|
E|---------------------------------|

Chorus
And it's forever, baby it's forever
And it's forever, baby it's forever

e|------------------------------------------------------|
B|------------------------------------------------------|
G|--10-10-10-10--10-10-10-10--10-10-10-10--11-11-11-11--|
D|------------------------------------------------------|
A|------------------------------------------------------|
E|------------------------------------------------------|

e|--------------------------------------------------|
B|--------------------------------------------------|
G|--10-10-10-10--10-10-10-10--10-10-10-10--8-8-8----|
D|--------------------------------------------------|
A|--------------------------------------------------|
E|--------------------------------------------------|

And let me run till the end of time
Until our hearts are aligned into the sky
Run till the end of time
Until our hearts are aligned into the sky
e|-----------------------------------------------------|
B|-----------------------------------------------------|
G|--10-10-10-10--10-10-10-10--11-11-11-11-13-13-13-13--|
D|-----------------------------------------------------|
A|-----------------------------------------------------|
E|-----------------------------------------------------|

and repeat forever and ever amen!

Tabbed by Lawrence Oh! Respect it!
Tap to rate this tab
 
# A B C D E F G H I J K L M N O P Q R S T U V W X Y Z