Song name
# A B C D E F G H I J K L M N O P Q R S T U V W X Y Z

The Drums - Me And The Moon tab

-------------------------------
  Me and the Moon - The Drums
-------------------------------

Tabbed by: Ryan L.
Email: N/A
Tuning: Standard (EADGBe)


Verse (lead)

e|-------------------------------|
B|-------------------------------|
G|----9-9-10-9-12-12-12-12-12----|
D|-------------------------------|
A|-------------------------------|
E|-------------------------------|

Chorus (lead)

e|-------------------------------|
B|----12-12-10-10----------------|
G|----------------9-9-7-9--------|
D|-------------------------------|
A|-------------------------------|
E|-------------------------------|

Solo (lead)

e|-------------------------------|
B|-------------------------------|
G|----4-4-4-4-4-4-4-5------------|
D|-------------------------------|
A|-------------------------------|
E|--------------------------- x3 |

e|-------------------------------|
B|-------------------------------|
G|----4-4-4-4--------------------|
D|------------0-0-0-0------------|
A|-------------------------------|
E|-------------------------------| 

Verse (bass)

e|-------------------------------|
B|-------------------------------|
G|-------------------------------|
D|-------------------------------|
A|-3#----------------------------|
E|----3#-------------------------|

Chorus (bass)

e|-------------------------------|
B|-------------------------------|
G|-------------------------------|
D|-------------------------------|
A|-3#----3#----------------------|
E|----3#----3#-1#----------------|


Verse (bass)

e|-------------------------------|
B|-------------------------------|
G|-------------------------------|
D|-------------------------------|
A|-3#----------------------------|
E|----3#-------------------------|

Listen to the record to get the correct timing.
Notes marked with a hash ( # ) should be played many times.
Tap to rate this tab
 
# A B C D E F G H I J K L M N O P Q R S T U V W X Y Z