Song name
# A B C D E F G H I J K L M N O P Q R S T U V W X Y Z

The Drums - Money tab

“Money”-The Drums

So I thought it was pretty ridiculous that the other tab for this uses primarily the D 
string so I made my own.  There is also a change in the verse and the chorus is more 
fleshed out.

*The number of consecutive notes in the verse may not be correct, have a listen to the 
song to get it right.


Tuning: Standard


Verse
e|-----------------------------------5--7---|
B|---7--7---7--7---7--7--7—-7—-7--8---------|
G|------------------------------------------|   X3
D|------------------------------------------|
A|------------------------------------------|
E|------------------------------------------|


e|--------------------------------------------|
B|--7--7--7--7--7--7--7--7--8--7--------------|
G|--------------------------------7-----------|
D|------------------------------------9-------|
A|--------------------------------------------|
E|--------------------------------------------|

Chorus
e|---------7------7------------------7-----7--------------------------------|
B|---7--8—----8-------8—-7------7--8-----8-----8--7-------------------------|
G|--------------------------------------------------------------------------|
D|--------------------------------------------------------------------------|
A|--------------------------------------------------------------------------|
E|--------------------------------------------------------------------------|
Tap to rate this tab
 
# A B C D E F G H I J K L M N O P Q R S T U V W X Y Z