Song name
# A B C D E F G H I J K L M N O P Q R S T U V W X Y Z

The Drums - Please Dont Leave tab

This song is pretty straightforward. I tabbed it out by ear so there may be a few mistakes,
 but it sounds great playing it. If anyone wants to collaborate for a similar style,
 let me know

-------------------------------------------------------------------------------
			    The Drums - Please Don't Leave
-------------------------------------------------------------------------------
Tabbed by: Victor Aguirre
Email: vaguirre830@gmail.com

Tuning: EADGBe

The song uses a lot of oscillation. You have to listen to the song to understand what I 
mean with the "=" sign at the end of each note.

Main Riff:

e|-----------------------------------------------------------------------------|
B|-----------------------------------------------------------------------------|
G|-----------------------------------------------------------------------------|
D|---12-14-12-14-12-17-17-17------12-14-12-14-12-17-17-17----------------------|
A|-----------------------------------------------------------------------------|
E|-----------------------------------------------------------------------------|

e|-----------------------------------------------------------------------------|
B|-----------------------------------------------------------------------------|
G|---17-12-17-12-17-17==--17-12-17-12-17-17==----------------------------------|
D|-----------------------------------------------------------------------------|
A|-----------------------------------------------------------------------------|
E|-----------------------------------------------------------------------------|

Pre-Chorus

e|-----------------------------------------------------------------------------|
B|-----------------------------------------------------------------------------|
G|-----------------------------------------------------------------------------|
D|-----------------------------------------------------------------------------|
A|-----------------------------------------------------------------------------|
E|---3===----1===--------------------------------------------------------------|

Chorus

e|-----------------------------------------------------------------------------|
B|-----------------------------------------------------------------------------|
G|---4-4-4-4-4-4==-9-9==---------4-4-4-4-4-4==-9-9==---------------------------|
D|-----------------------------------------------------------------------------|
A|-----------------------------------------------------------------------------|
E|-----------------------------------------------------------------------------|

e|-----------------------------------------------------------------------------|
B|-----------------------------------------------------------------------------|
G|--9-9-9-9-9-9==-7-7==---------9-9-9-9-9-9==-7-7==----------------------------|
D|-----------------------------------------------------------------------------|
A|-----------------------------------------------------------------------------|
E|-----------------------------------------------------------------------------|

Bridge ( "I wont let go, no, I won't let go)

e|---------------------------------------------------------------------------|
B|---------------------------------------------------------------------------|
G|---------------------------------------------------------------------------|
D|----9-9-9------------------------------------------------------------------|
A|---------------------------------------------------------------------------|
E|---------------------------------------------------------------------------|

STRUCTURE:

Main Riff x 4
Pre-Chorus x 3
Chorus x 2
Main Riff x 3
Pre-Chorus x 3
Chorus x 2
Bridge x 9
Chorus (Play til the end)



************************************

| /   slide up
| \   slide down
| h   hammer-on
| p   pull-off
| ~   vibrato
| +   harmonic
| x   Mute note
| b   Bend
| pb  Pre-bend
| br  Bend release
| pbr Pre-bend release
| brb Bend release bend

************************************
Tap to rate this tab
 
# A B C D E F G H I J K L M N O P Q R S T U V W X Y Z