Song name
# A B C D E F G H I J K L M N O P Q R S T U V W X Y Z

The Drums - Days tab

-------------------------------------------------------------------------------
                             Days - The Drums
-------------------------------------------------------------------------------
Tabbed by: Shulman96
Email:Shulman96@mail.ru

Tuning: Standart

 "And now days go by..."

e|---------------------------------------------------------------------------|
B|---------------------------------------------------------------------------|
G|---------------------------------------------------------------------------|
D|-4-----4-----4-----4-----4-----4-------------------------------------------|
A|--4-5---4-5---4-5---4-5---4-5----4-5---------------------------------------|
E|---------------------------------------------------------------------------|

In verses guitar doesn't play

Chorus

e|---------------------------------------------------------------------------|
B|---------------------------------------------------------------------------|
G|---------------------------------------------------------------------------|
D|-4-----4-----4-----4-----4-----4-------------------------------------------|
A|--4-5---4-5---4-5---4-5---4-5----4-5---------------------------------------|
E|---------------------------------------------------------------------------|
e|---------------------------------------------------------------------------|

"We were just wasting time..." (2:23 - 2:51)

B|----------------------------------------------------------------------------|
G|-6-7-----6-7--6-7-----------------------------------------------------------|
D|-----5-4----------5-4-------------------------------------------------------|
A|----------------------------------------------------------------------------|
E|----------------------------------------------------------------------------|

Play behind (2:23 till the end)


e|---------------------------------------------------------------------------|
B|-15-15-15-15-15-15-15-15-15-15-15-15-15-15-15-15-14-14-14-14-14------------|
G|-14-14-14-14-14-14-14-14-14-14-14-14-14-14-14-14-14-14-14-14-14------------|
D|-16-16-16-16-16-16-16-16-16-16-16-16-16-16-16-16-16-16-16-16-16------------|
A|---------------------------------------------------------------------------|
E|---------------------------------------------------------------------------|

( 3:14 till the end)

e|----------------------------------------------------------------------------|
B|----------------------------------------------------------------------------|
G|-11--11-11--11-11-11--11-11-11-9-11-----------------------------------------|
D|----------------------------------------------------------------------------|
A|----------------------------------------------------------------------------|
E|----------------------------------------------------------------------------|
Tap to rate this tab
# A B C D E F G H I J K L M N O P Q R S T U V W X Y Z