Song name
# A B C D E F G H I J K L M N O P Q R S T U V W X Y Z

The Drums - Baby Thats Not The Point tab

Baby that's not the point by The Drums


  play that two times....

e|--------------------------------------------------------------------------|
B|--------------------------------------------------------------------------|
G|--------------------------------------------------------------------------|
D|--------------------------------------------------------------------------| 
A|--------------------------------------------------------------------------|
E|--5--5--0--5--5--0--2--2--0--2--2--0--5--5--0--5--5--0--2--2--0--2--2--0--|
  and then this...
e|--------------------------------------------------------------------------|
B|--------------------------------------------------------------------------|
G|--------------------------------------------------------------------------|
D|--------------------------------------------------------------------------| 
A|--------------------------------------------------------------------------|
E|10--10-10---7--7-7---10--10-10---7--7-7---10--10-10---7--7-7---5-5-0-5-5..|

just repeat the whole thing

  And this is the guitar-solo

e|9---9-9-10-9-7-5------9---9-9-10-9-7-5--------9-7-5-7-9-5----999-7-5-7-9-5|
B|------------------7---------------------7---------------------------------|
G|--------------------------------------------------------------------------|
D|--------------------------------------------------------------------------| 
A|--------------------------------------------------------------------------|
E|--------------------------------------------------------------------------|

e|-9-7-5-7-9-5----9-7-5-7---------------------------------------------------|
B|------------------------7-10-10-------------------------------------------|
G|--------------------------------------------------------------------------|
D|--------------------------------------------------------------------------| 
A|--------------------------------------------------------------------------|
E|--------------------------------------------------------------------------|
hope you like it:]
Tap to rate this tab
# A B C D E F G H I J K L M N O P Q R S T U V W X Y Z