Song name
# A B C D E F G H I J K L M N O P Q R S T U V W X Y Z

The Drums - What You Were tab

Sorry, the tab is not always in the most accurate timing

Intro/1st verse: guitar and bass
e|--------------------------------------------------------------------------|
B|--------------------------------------------------------------------------|
G|--------------------------------------------------------------------------|
D|--------------------------------------------------------------------------|
A|---------------------------------------------2-2--------------------------|
E|---3-3--3-3--3-3--3-3-5-5--0-0--0-0--0-0--0-0-----------------------------|

pre-chorus:
e|--------------------------------------------------------------------------|
B|--------------------------------------------------------------12----------|
G|--7-7---7-7-9---7-7---7-7-9---11-11-9-11-11-12--11-11-9-11-11----12-------|
D|------9-------------9-----------------------------------------------------|
A|--------------------------------------------------------------------------|
E|--------------------------------------------------------------------------|

e|--------------------------------------------------------------------------|
B|-----------------------------------------------------------12-10----------|
G|--7-7---7-7-9---7-7---7-7-9---11-11-9-11-11-12--11-11-9-11-------12-------|
D|------9-------------9-----------------------------------------------------|
A|--------------------------------------------------------------------------|
E|--------------------------------------------------------------------------|

Chorus:   *studio version double tracks 2nd verse pattern over chorus
e|--------------------------------------------------------------------------|
B|----3-3-----3-3----1-1-----1-1-----3-3-----3-3---1-1-----1-0--------------|
G|--0-----0-0------0-----0-0-------0-----0-0-----0-----0-0------------------|
D|--------------------------------------------------------------------------|
A|--------------------------------------------------------------------------|
E|--------------------------------------------------------------------------|

e|--------------------------------------------------------------------------|
B|----3-3-----3-3----1-1-----1-1-----3-3-----3-3---1-1-----1-0--------------|
G|--0-----0-0------0-----0-0-------0-----0-0-----0-----0-0------------------|
D|--------------------------------------------------------------------------|
A|--------------------------------------------------------------------------|
E|--------------------------------------------------------------------------|

e|--------------------------------------------------------------------------|
B|----3-3-----3-3----1-1-----1-0--------------------------------------------|
G|--0-----0-0------0-----0-0-------------0-0--0-0--0-0--0-0-----------------|
D|--------------------------------------------------------------------------|
A|--------------------------------------------------------------------------|
E|--------------------------------------------------------------------------|
                          
2nd verse:  t.p.(tremolo pick)
e|----7-t.p.---8-8---7-t.p.---8-8---7-t.p.---8---7-t.p.---------------------|
B|----8-t.p.---7-7---8-t.p.---7-7---8-t.p.---7---8-t.p.---------------------|
G|--------------------------------------------------------------------------|
D|--------------------------------------------------------------------------|
A|--------------------------------------------------------------------------|
E|--------------------------------------------------------------------------|

Bridge: oh oh ooh ooh
e|--15-t.p.--14-t.p.--15-t.p.--14-t.p.--15-t.p.--14-t.p.--15-t.p.--14-t.p.--|
B|--------------------------------------------------------------------------|
G|--------------------------------------------------------------------------|
D|--------------------------------------------------------------------------|
A|--------------------------------------------------------------------------|
E|--------------------------------------------------------------------------|
        *The studio version plays 2nd verse pattern instead

End:
e|--------------------------------------------------------------------------|
B|--------------------------------------------------------------------------|
G|-------------------0-0----------------------------------------------------|
D|--------------------------------------------------------------------------|
A|--------------------------------------------------------------------------|
E|---*3-3--3-3--3-3---------------------------------------------------------|
*optional

    Intro (live version only)
      Verse 1
        Pre-Chorus
          Chorus
            Verse 2
              Pre-Chorus
                Chorus
                  Bridge
                    End
Tap to rate this tab
# A B C D E F G H I J K L M N O P Q R S T U V W X Y Z