The Dumpers - Lets Go Kill All The Cops tab

-----------------------------------------------------------------
Let's Go Kill All the Cops - The Dumpers
-----------------------------------------------------------------
Tabbed by:
Email:

Tuning:Standard EADGBe

Intro/verse
e|------7-----5----7---------------------------------------------|
B|------9-----5----7---------------------------------------------|
G|------9X5---6X2--8X2-------------------------------------------|
D|------9-----7----9---------------------------------------------|
A|------7-----7----9---------------------------------------------|
E|------------5----7---------------------------------------------|

Chorus

e|---------------------------------------------------------------|
B|---------------------------------------------------------------|
G|--7------------------------------------------------------------|
D|--7X5---7------9-----------------------------------------------|
A|--9-----7X2----9X2---------------------------------------------|
E|--------5------7-----------------------------------------------|


Here's their Myspace, a really good Choking Victim/Leftover Crack ripoff band (;
Tap to rate this tab
 
# A B C D E F G H I J K L M N O P Q R S T U V W X Y Z