Song name
# A B C D E F G H I J K L M N O P Q R S T U V W X Y Z

The Duskfall - The Wheel And The Blacklight tab

The Wheel and the Blacklight
The Duskfall
Tuning: Half-Step Down
=-=-=-=-=-=-=-=-=-=-=-=-=-=-=-=-
Intro
------------
|-------------------|-----------------|-----------------|-------------------|
|-------------------|-----------------|-----------------|-------------------|
|---7-7-7-7-7-7-7-7-|-7-7-7-7-7-7-7-7-|-7-7-7-7-7-7-7-7-|-7-7-7-7-10-10-9-9-|
|-------------------|-----------------|-----------------|-------------------| x2
|---5-5-5-5-5-5-5-5-|-5-5-5-5-5-5-5-5-|-5-5-5-5-5-5-5-5-|-5-5-5-5--8--8-7-7-|
|-------------------|-----------------|-----------------|-------------------|


Main Riff
------------
|-----------------|------------------|
|-----------------|------------------|
|-----------------|------------------|
|-----------------|---------3-3-5-5--| x4
|-0-0-0-0-3-3-3-3-|-5-5-5-5-1-1-3-3--|
|-0-0-0-0-3-3-3-3-|-5-5-5-5----------|


Verse
-----------
|--------------|------------|------------|----------------------|
|--------------|------------|------------|----------------------|
|--------------|------------|------------|----------------------|
|--------------|------------|------------|----------5-5-5-------| x2
|-0-0----------|-0-7-6-5-0--|--0-0-------|---3-3-3--3-3-3---0-0-|
|-0-0----------|-0-7-6-5-0--|--0-0-------|---3-3-3----------0-0-|
            P.M  . . . . .

Alt. Verse
-------------
|---------------------------------------------------------------------------|
|---------------------------------------------------------------------------|
|---------------------------------------------------------------------------|
|----------------------------------------------------------5-5-5------------| x2
|-0-0-0-0-0-0-0-0-0-0-0-0-0-0-0-0-0-0-0-0-0-0-0-0-0-3-3-3--3-3-3------------|
|-0-0-0-0-0-0-0-0-0-0-0-0-0-0-0-0-0-0-0-0-0-0-0-0-0-3-3-3-------------------|
  . . . . . . . . . . . . . . . . . . . . . . . . .

Chorus
------------
|---------------------------------------------------------------------------|
|---------------------------------------------------------------------------|
|-10--10--10-10-10-9--7-5--5--5-7--5-5---5---5---5-5-7-7-9-9----------------|
|---------------------------------------------------------------------------|
|---------------------------------------------------------------------------|
|---------------------------------------------------------------------------|

|-----------------------------------------------------------------------------|
|-----------------------------------------------------------------------------|
|-10--10--10-10-10-9--7-5--5--5-7--5-5---5-5---5-5-7-7-7-9-9------------------|
|-----------------------------------------------------------------------------|
|-----------------------------------------------------------------------------|
|-----------------------------------------------------------------------------|

Break
---------
|-----------------------------------------------------------------------------|
|-----------------------------------------------------------------------------|
|--10~~-----------------------------------------------------------------------|
|------------------------------------5-5-5-----------------------------5-5-5--|
|---------------------------0-3-3-3--3-3-3-----0~~------------0-3-3-3--3-3-3--|
|---------------------------0-3-3-3------------0~~------------0-3-3-3---------|
                            .                                 .

Verse
--------
|---------------------------------------------------------------------------|
|---------------------------------------------------------------------------|
|---------------------------------------------------------------------------|
|---------------------------------------------------------------------------|
|-0-0-0-0-0-0-0-0-0-0-0-0-0-0-0-0-0-0-0-0-0-0-0-0-0-0-0---------------------|
|-0-0-0-0-0-0-0-0-0-0-0-0-0-0-0-0-0-0-0-0-0-0-0-0-0-0-0-0-7-5-3-5-----------|
  . . . . . . . . . . . . . . . . . . . . . . . . . . . 

|---------------------------------------------------------------------------|
|---------------------------------------------------------------------------|
|---------------------------------------------------------------------------|
|-----------------------------------------------------------5-5-5-----------| x2
|-0-0-0-0-0-0-0-0-0-0-0-0-0-0-0-0-0-0-0-0-0-0-0-0-0-3-3-3---3-3-3-----------|
|-0-0-0-0-0-0-0-0-0-0-0-0-0-0-0-0-0-0-0-0-0-0-0-0-0-3-3-3-------------------|
  . . . . . . . . . . . . . . . . . . . . . . . . .

Verse Alt.
-----------
|-------------------------------------------------------------------------------|
|-------------------------------------------------------------------------------|
|-------------------------------------------------------------------------------|
|-----------------------------------------------------------------------5-5-5---| x2
|---------------------------------------------------------------3-3-3---3-3-3---|
|-000--000--000--000--000--000--000--000--000--000--000--000--003-3-3-----------|


Chorus
----------
|-----------------------------------------------------------------------------|
|-----------------------------------------------------------------------------|
|-10--10--10-10-10-9--7-5--5--5-7--5-5---5-5--5--5-5-7-7-9-9------------------|
|-----------------------------------------------------------------------------|
|-----------------------------------------------------------------------------|
|-----------------------------------------------------------------------------|

|-----------------------------------------------------------------------------|
|-----------------------------------------------------------------------------|
|-10--10--10-10-10-9--7-5--5--5-7--5-5---5---5-5---5-7-7-7-9-9----------------|
|-----------------------------------------------------------------------------|
|-----------------------------------------------------------------------------|
|-----------------------------------------------------------------------------|


Break
--------
|--------------------------------------------------------------------------------|
|--------------------------------------------------------------------------------|
|--------------------------------------------------------------------------------|
|--------------------------------------------------------------------------------|
|0-0-0-0-0-0-0-0-0-0-0-0-0-0-0-0-0-0-0-0-0-0-0-0-0-0-0-0-0-0-0-0-0-0-0-0-0-0-0-0-|
|0-0-0-0-0-0-0-0-0-0-0-0-0-0-0-0-0-0-0-0-0-0-0-0-0-0-0-0-0-0-0-0-0-0-0-0-0-0-0-0-|
 . . . . . . . . . . . . . . . . . . . . . . . . . . . . . . . . . . . . . . . .

|--------------------------------|
|--------------------------------|
|------------------------7~\-----|
|------------------------7~\-----|
|-0-0-0-0-0-0-0-0-0-0-0--5~\-----|
|-0-0-0-0-0-0-0-0-0-0-0----------|
  . . . . . . . . . . .  

Main Riff
-----------
|-----------------|------------------|
|-----------------|------------------|
|-----------------|------------------|
|-----------------|---------3-3-5-5--| x4
|-0-0-0-0-3-3-3-3-|-5-5-5-5-1-1-3-3--|
|-0-0-0-0-3-3-3-3-|-5-5-5-5----------|


Solo
----------
|-------------------------------------------------------------------|
|-------------------------------------------------------------------|
|--------------------10-9-----7~-----10-9----7~-----10-9----7~------|
|-----------------10------10--------------10-------------10---------|
|-8~~-----7~~-------------------------------------------------------|
|-------------------------------------------------------------------|

|---------------------------------------------------------------------------------|
|---------------------------------------------------------------------------------|
|----------10~-7~--------10-9----7~------12-12-10-10-9-9-----------------10--7----|
|-10-12-10------------10-----10--------------------------10--12-10-12-10----------|
|---------------------------------------------------------------------------------|
|---------------------------------------------------------------------------------|
                                                              .  .  .  .


|----------------------------------------------------------------------------------|
|-15---15~-----15-13-15-17^-17~r---18-17-15----------------------------------------|
|-------------------------------------------17-15-14-------------------------------|
|----------------------------------------------------17-15-14~~---15~-14~~---------|
|----------------------------------------------------------------------------------|
|----------------------------------------------------------------------------------|

|--------------------|
|--------------------|
|--------------------|
|--15~--------14~----|
|--------------------|
|--------------------|
    *          *                                                  

Chorus
--------------
|---------------------------------------------------------------------------|
|---------------------------------------------------------------------------|
|-10--10--10-10-10-9--7-5--5--5-7--5-5---5---5---5-5-7-7-9-9----------------|
|---------------------------------------------------------------------------|
|---------------------------------------------------------------------------|
|---------------------------------------------------------------------------|

|-----------------------------------------------------------------------------|
|-----------------------------------------------------------------------------|
|-10--10--10-10-10-9--7-5--5--5-7--5-5---5---5-5---5-7-7-7-9-9----------------|
|-----------------------------------------------------------------------------|
|-----------------------------------------------------------------------------|
|-----------------------------------------------------------------------------|

|---------------------------------------------------------------------------|
|---------------------------------------------------------------------------|
|-10--10--10-10-10-9--7-5--5--5-7--5-5---5---5---5-5-7-7-9-9----------------|
|---------------------------------------------------------------------------|
|---------------------------------------------------------------------------|
|---------------------------------------------------------------------------|

|-----------------------------------------------------------------------------|
|-----------------------------------------------------------------------------|
|-10--10--10-10-10-9--7-5--5--5-7--5-5---5---5-5---5-7-7-7-9-9----------------|
|-----------------------------------------------------------------------------|
|-----------------------------------------------------------------------------|
|-----------------------------------------------------------------------------|


End
---------
|---------------------------------------------------|
|---------------------------------------------------|
|---------------------------------------------------|
|---------------------------------------------------| 
|-0~~~~~~~~~~~~~~~~~~~~~~~~~~~~~~~~~~~--------------|
|-0~~~~~~~~~~~~~~~~~~~~~~~~~~~~~~~~~~~--------------|

any comments or suggestions, lemme know.
this is my first tab, so take it easy


Legend:
. - Palm Mute
~ - Ring
^ - Bend
r - Bend Release
\ - Slide
* - Pinch Harmonic
=-=-=-=-=-=-=-=-=-=-=-=-=-=-=-=-=-=-=-=-
Tap to rate this tab
 
# A B C D E F G H I J K L M N O P Q R S T U V W X Y Z