Song name
# A B C D E F G H I J K L M N O P Q R S T U V W X Y Z

The Duskfall - Shoot It In tab

Help us improve GuitareTab! Take a short survey!
Shoot It In
The Duskfall
Lifetime Supply of Guilt
Half-Step Down tuning
=-=-=-=-=-=-=-=-=-=-=-=-=-=-=-=-=-=
|------------------------------------------------------------------|
|------------------------------------------------------------------|
|------------------------------------------------------------------|
|---------------------------------5-5-5-5-5-5-5-5------------------|
|-2-2-2-2-2-2-2-2-2-2-2-2-2-2-2-2-3-3-3-3-3-3-3-3-7-7-7-7-9-9-9-9--|
|-0-0-0-0-0-0-0-0-0-0-0-0-0-0-0-0-----------------5-5-5-5-7-7-7-7--|


|------------------------------------------------------------------|
|------------------------------------------------------------------|
|------------------------------------------------------------------|
|---------------------------------5-5-5-5-5-5-5-5------------------|
|-2-2-2-2-2-2-2-2-2-2-2-2-2-2-2-2-3-3-3-3-3-3-3-3-7-7-7-7-9-9-9-9--|
|-0-0-0-0-0-0-0-0-0-0-0-0-0-0-0-0-----------------5-5-5-5-7-7-7-7--|


|------------------------------------------------------------------|
|------------------------------------------------------------------|
|------------------------------------------------------------------|
|---------------------------------5-5-5-5-5-5-5-5------------------|
|-2-2-2-2-2-2-2-2-2-2-2-2-2-2-2-2-3-3-3-3-3-3-3-3-7-7-7-7-9-9-9-9--|
|-0-0-0-0-0-0-0-0-0-0-0-0-0-0-0-0-----------------5-5-5-5-7-7-7-7--|


|------------------------------------------------------------------|
|------------------------------------------------------------------|
|------------------------------------------------------------------|
|---------------------------------5-5-5-5-5-5-5-5------------------|
|-2-2-2-2-2-2-2-2-2-2-2-2-2-2-2-2-3-3-3-3-3-3-3-3-7-7-7-7-9-9-9-9--|
|-0-0-0-0-0-0-0-0-0-0-0-0-0-0-0-0-----------------5-5-5-5-7-7-7-7--|


|------------------------------------------------------------------
|------------------------------------------------------------------|
|------------------------------------------------------------------|
|------------------------------------------------------------------|
|-2-2------------------2---2------------5-7*~----------------------|
|-0-0------------------0---0------0-5-7----------------------------|


|----------------------------------------------------------------------|
|----------------------------------------------------------------------|
|----------------------------------------------------------------------|
|--------------------------------5-3-0---------------------------------|
|------------------------------3--------------------------------3-5*---|
|-000--000--000--000--000--3-5-----------000-000-000-000-000-3-5-------|


|-------------------------------------------------------------------|
|-------------------------------------------------------------------|
|-------------------------------------------------------------------|
|-------------------------------5-3-0----9~-------9--9--7--7--------|
|-----------------------------3----------7~-------7--7--5--5--------|
|-000--000--000--000--000--3-5--------------------------------------|


|----------------------------------------------------------------------|
|----------------------------------------------------------------------|
|----------------------------------------------------------------------|
|--------------------------------5-3-0---------------------------------|
|------------------------------3--------------------------------3-5*---|
|-000--000--000--000--000--3-5-----------000-000-000-000-000-3-5-------|


|-------------------------------------------------------------------------|
|-------------------------------------------------------------------------|
|-------------------------------------------------------------------------|
|-------------------------------5-3-0----9~-------9--9--7--7----------9~--|
|-----------------------------3----------7~-------7--7--5--5------7-7-7~--|
|-000--000--000--000--000--3-5--------------------------------------------|


|-------------------------------------------------------------------------|
|-------------------------------------------------------------------------|
|-------------------------------------------------------------------------|
|-----5~-------------9~------------5~------7-----------9~----------5~-----|
|-3-3-3~---------7-7-7~--------3-3-3~------5-------7-7-7~------3-3-3~-----|
|-------------------------------------------------------------------------|


|------------------------------------------------------------------------------------------------|
|------------------------------------------------------------------------------------------------|
|------------------------------------------------------------------------------------------------|
|-----9~-----5~--5~--5--7--7--7-----------------------------------5-5-5-5-5-5-5-5----------------|
|-7-7-7~-----3~--3~--3--5--5--5---2-2-2-2-2-2-2-2-2-2-2-2-2-2-2-2-3-3-3-3-3-3-3-3-7-7-7-7-9-9-9-9|
|---------------------------------0-0-0-0-0-0-0-0-0-0-0-0-0-0-0-0-----------------5-5-5-5-7-7-7-7|


|------------------------------------------------------------------|
|------------------------------------------------------------------|
|------------------------------------------------------------------|
|---------------------------------5-5-5-5-5-5-5-5------------------|
|-2-2-2-2-2-2-2-2-2-2-2-2-2-2-2-2-3-3-3-3-3-3-3-3-7-7-7-7-9-9-9-9--|
|-0-0-0-0-0-0-0-0-0-0-0-0-0-0-0-0-----------------5-5-5-5-7-7-7-7--|


|------------------------------------------------------------------|
|------------------------------------------------------------------|
|------------------------------------------------------------------|
|---------------------------------5-5-5-5-5-5-5-5------------------|
|-2-2-2-2-2-2-2-2-2-2-2-2-2-2-2-2-3-3-3-3-3-3-3-3-7-7-7-7-9-9-9-9--|
|-0-0-0-0-0-0-0-0-0-0-0-0-0-0-0-0-----------------5-5-5-5-7-7-7-7--|


|------------------------------------------------------------------|
|------------------------------------------------------------------|
|------------------------------------------------------------------|
|---------------------------------5-5-5-5-5-5-5-5------------------|
|-2-2-2-2-2-2-2-2-2-2-2-2-2-2-2-2-3-3-3-3-3-3-3-3-7-7-7-7-9-9-9-9--|
|-0-0-0-0-0-0-0-0-0-0-0-0-0-0-0-0-----------------5-5-5-5-7-7-7-7--|


|----------------------------------------------------------------------|
|----------------------------------------------------------------------|
|----------------------------------------------------------------------|
|--------------------------------5-3-0---------------------------------|
|------------------------------3--------------------------------3-5*---|
|-000--000--000--000--000--3-5-----------000-000-000-000-000-3-5-------|


|-------------------------------------------------------------------|
|-------------------------------------------------------------------|
|-------------------------------------------------------------------|
|-------------------------------5-3-0----9~-------9--9--7--7--------|
|-----------------------------3----------7~-------7--7--5--5--------|
|-000--000--000--000--000--3-5--------------------------------------|


|----------------------------------------------------------------------|
|----------------------------------------------------------------------|
|----------------------------------------------------------------------|
|--------------------------------5-3-0---------------------------------|
|------------------------------3--------------------------------3-5*---|
|-000--000--000--000--000--3-5-----------000-000-000-000-000-3-5-------|


|-------------------------------------------------------------------|
|-------------------------------------------------------------------|
|-------------------------------------------------------------------|
|-------------------------------5-3-0----9~-------9--9--7--7--------|
|-----------------------------3----------7~-------7--7--5--5--------|
|-000--000--000--000--000--3-5--------------------------------------|


|------------------------------------------------------------------------------------------|
|------------------------------------------------------------------------------------------|
|------------------------------------------------------------------------------------------|
|-------9~-----------5~-------------9~------------5~------7--7--7-------9~----------5~-----|
|---7-7-7~-------3-3-3~---------7-7-7~--------3-3-3~------5--5--5---7-7-7~------3-3-3~-----|
|------------------------------------------------------------------------------------------|


|-------------------------------------|
|-------------------------------------|
|-------------------------------------|
|-----9~-------5~--5~--5-7-7-7--------|
|-7-7-7~-------3~--3~--3-5-5-5--------|
|-------------------------------------|


|------------------------------------------------------------------|
|------------------------------------------------------------------|
|------------------------------------------------------------------|
|---------------------------------5-5-5-5-5-5-5-5------------------|
|-2-2-2-2-2-2-2-2-2-2-2-2-2-2-2-2-3-3-3-3-3-3-3-3-7-7-7-7-9-9-9-9--|
|-0-0-0-0-0-0-0-0-0-0-0-0-0-0-0-0-----------------5-5-5-5-7-7-7-7--|


|------------------------------------------------------------------|
|------------------------------------------------------------------|
|------------------------------------------------------------------|
|---------------------------------5-5-5-5-5-5-5-5------------------|
|-2-2-2-2-2-2-2-2-2-2-2-2-2-2-2-2-3-3-3-3-3-3-3-3-7-7-7-7-9-9-9-9--|
|-0-0-0-0-0-0-0-0-0-0-0-0-0-0-0-0-----------------5-5-5-5-7-7-7-7--|


|------------------------------------------------------------------|
|------------------------------------------------------------------|
|------------------------------------------------------------------|
|---------------------------------5-5-5-5-5-5-5-5------------------|
|-2-2-2-2-2-2-2-2-2-2-2-2-2-2-2-2-3-3-3-3-3-3-3-3-7-7-7-7-9-9-9-9--|
|-0-0-0-0-0-0-0-0-0-0-0-0-0-0-0-0-----------------5-5-5-5-7-7-7-7--|


|------------------------------------------------------------------|
|------------------------------------------------------------------|
|------------------------------------------------------------------|
|---------------------------------5-5-5-5-5-5-5-5------------------|
|-2-2-2-2-2-2-2-2-2-2-2-2-2-2-2-2-3-3-3-3-3-3-3-3-7-7-7-7-9-9-9-9--|
|-0-0-0-0-0-0-0-0-0-0-0-0-0-0-0-0-----------------5-5-5-5-7-7-7-7--|


|---------------------------5-----5-------------------------|
|---------2--4~----(4)------------------------------2--4~---|
|-----2-4----------------7-----7-----4~----------2-4--------|
|-2--4---------------------------------------2--4-----------|
|-----------------------------------------------------------|
|-----------------------------------------------------------|


|---------------------------------------------------|
|---------------------------------------------------|
|-7-6-4----7-6-4-----7-6-4-7-6-4-7-6-4-7-6-4-4~-----|
|-------7--------7----------------------------------|
|---------------------------------------------------|
|---------------------------------------------------|


|----------------------------------14--12------12-------------------------------------|
|-----7---6-----7---6----------12----------15----15--14-12~---------------------------|
|-/4---------4---------4~-------------------------------------------------------------|
|----------------------------------------------------------------x-x-11-9--x-x-7\9~---|
|-------------------------------------------------------------------------------------|
|-------------------------------------------------------------------------------------|


|----------------------------------------------12---14---12---------------|
|------------------------------------------12------------------15---14----|
|--------------------4---6---7---6---4-6----------------------------------|
|-------------------------------------------------------------------------|
|-------------------------------------------------------------------------|
|-2--4--5--4--2-4---------------------------------------------------------|


|------------------------------------------------------------------|
|------------------------------------------------------------------|
|------------------------------------------------------------------|
|---------------------------------5-5-5-5-5-5-5-5------------------|
|-2-2-2-2-2-2-2-2-2-2-2-2-2-2-2-2-3-3-3-3-3-3-3-3-7-7-7-7-9-9-9-9--|
|-0-0-0-0-0-0-0-0-0-0-0-0-0-0-0-0-----------------5-5-5-5-7-7-7-7--|


|------------------------------------------------------------------|
|------------------------------------------------------------------|
|------------------------------------------------------------------|
|---------------------------------5-5-5-5-5-5-5-5------------------|
|-2-2-2-2-2-2-2-2-2-2-2-2-2-2-2-2-3-3-3-3-3-3-3-3-7-7-7-7-9-9-9-9--|
|-0-0-0-0-0-0-0-0-0-0-0-0-0-0-0-0-----------------5-5-5-5-7-7-7-7--|


|------------------------------------------------------------------|
|------------------------------------------------------------------|
|------------------------------------------------------------------|
|---------------------------------5-5-5-5-5-5-5-5------------------|
|-2-2-2-2-2-2-2-2-2-2-2-2-2-2-2-2-3-3-3-3-3-3-3-3-7-7-7-7-9-9-9-9--|
|-0-0-0-0-0-0-0-0-0-0-0-0-0-0-0-0-----------------5-5-5-5-7-7-7-7--|


|------------------------------------------------------------------|
|------------------------------------------------------------------|
|------------------------------------------------------------------|
|---------------------------------5-5-5-5-5-5-5-5------------------|
|-2-2-2-2-2-2-2-2-2-2-2-2-2-2-2-2-3-3-3-3-3-3-3-3-7-7-7-7-9-9-9-9--|
|-0-0-0-0-0-0-0-0-0-0-0-0-0-0-0-0-----------------5-5-5-5-7-7-7-7--|

Any comments or suggestions, lemme know. this is my
second tab, so im still tryin to get the hang of 
everything, so dont dog me too hard please


Legend:
~ = Hold
* = Pinch Harmonic
/ = Slide Up
\ = Slide Down
x = Mute Note
Related for Shoot It In tab